ISO-10303-21;
HEADER;
FILE_DESCRIPTION( ( 'Unknown' ), '1' );
FILE_NAME( 'C:/STDBEL/ADSR/3D/ADSR36/ADSR36.stp', 'Unknown', ( 'Unknown' ), ( 'Unknown' ), 'PSStep 16.0.42', 'Unknown', '  ' );
FILE_SCHEMA( ( 'AUTOMOTIVE_DESIGN { 1 0 10303 214 1 1 1 1 }' ) );
ENDSEC;
DATA;
#1 = MECHANICAL_DESIGN_GEOMETRIC_PRESENTATION_REPRESENTATION( ' ', ( #10, #11, #12, #13, #14, #15, #16, #17, #18, #19, #20 ), #6 );
#2 = PRODUCT_DEFINITION_CONTEXT( '', #21, 'design' );
#3 = APPLICATION_PROTOCOL_DEFINITION( 'international standard', 'automotive_design', 2001, #21 );
#4 = PRODUCT_CATEGORY_RELATIONSHIP( 'NONE', 'NONE', #22, #23 );
#5 = SHAPE_DEFINITION_REPRESENTATION( #24, #25 );
#6 =  ( GEOMETRIC_REPRESENTATION_CONTEXT( 3 )GLOBAL_UNCERTAINTY_ASSIGNED_CONTEXT( ( #28 ) )GLOBAL_UNIT_ASSIGNED_CONTEXT( ( #30, #31, #32 ) )REPRESENTATION_CONTEXT( 'NONE', 'WORKSPACE' ) );
#10 = STYLED_ITEM( '', ( #34 ), #35 );
#11 = STYLED_ITEM( '', ( #36 ), #37 );
#12 = STYLED_ITEM( '', ( #38 ), #39 );
#13 = STYLED_ITEM( '', ( #40 ), #41 );
#14 = STYLED_ITEM( '', ( #42 ), #43 );
#15 = STYLED_ITEM( '', ( #44 ), #45 );
#16 = STYLED_ITEM( '', ( #46 ), #47 );
#17 = STYLED_ITEM( '', ( #48 ), #49 );
#18 = STYLED_ITEM( '', ( #50 ), #51 );
#19 = STYLED_ITEM( '', ( #52 ), #53 );
#20 = STYLED_ITEM( '', ( #54 ), #55 );
#21 = APPLICATION_CONTEXT( 'core data for automotive mechanical design processes' );
#22 = PRODUCT_CATEGORY( 'part', 'NONE' );
#23 = PRODUCT_RELATED_PRODUCT_CATEGORY( 'detail', ' ', ( #56 ) );
#24 = PRODUCT_DEFINITION_SHAPE( 'NONE', 'NONE', #57 );
#25 = ADVANCED_BREP_SHAPE_REPRESENTATION( '1', ( #58, #59 ), #6 );
#28 = UNCERTAINTY_MEASURE_WITH_UNIT( LENGTH_MEASURE( 0.00100000000000000 ), #30, '', '' );
#30 =  ( CONVERSION_BASED_UNIT( 'MILLIMETRE', #62 )LENGTH_UNIT(  )NAMED_UNIT( #65 ) );
#31 =  ( NAMED_UNIT( #67 )PLANE_ANGLE_UNIT(  )SI_UNIT( $, .RADIAN. ) );
#32 =  ( NAMED_UNIT( #67 )SI_UNIT( $, .STERADIAN. )SOLID_ANGLE_UNIT(  ) );
#34 = PRESENTATION_STYLE_ASSIGNMENT( ( #73 ) );
#35 = ADVANCED_FACE( '', ( #74, #75, #76, #77 ), #78, .F. );
#36 = PRESENTATION_STYLE_ASSIGNMENT( ( #79 ) );
#37 = ADVANCED_FACE( '', ( #80, #81 ), #82, .F. );
#38 = PRESENTATION_STYLE_ASSIGNMENT( ( #83 ) );
#39 = ADVANCED_FACE( '', ( #84, #85 ), #86, .F. );
#40 = PRESENTATION_STYLE_ASSIGNMENT( ( #87 ) );
#41 = ADVANCED_FACE( '', ( #88 ), #89, .F. );
#42 = PRESENTATION_STYLE_ASSIGNMENT( ( #90 ) );
#43 = ADVANCED_FACE( '', ( #91 ), #92, .T. );
#44 = PRESENTATION_STYLE_ASSIGNMENT( ( #93 ) );
#45 = ADVANCED_FACE( '', ( #94 ), #95, .F. );
#46 = PRESENTATION_STYLE_ASSIGNMENT( ( #96 ) );
#47 = ADVANCED_FACE( '', ( #97 ), #98, .F. );
#48 = PRESENTATION_STYLE_ASSIGNMENT( ( #99 ) );
#49 = ADVANCED_FACE( '', ( #100 ), #101, .F. );
#50 = PRESENTATION_STYLE_ASSIGNMENT( ( #102 ) );
#51 = ADVANCED_FACE( '', ( #103, #104 ), #105, .F. );
#52 = PRESENTATION_STYLE_ASSIGNMENT( ( #106 ) );
#53 = ADVANCED_FACE( '', ( #107 ), #108, .T. );
#54 = PRESENTATION_STYLE_ASSIGNMENT( ( #109 ) );
#55 = ADVANCED_FACE( '', ( #110, #111, #112, #113 ), #114, .T. );
#56 = PRODUCT( '1', '1', 'PART-1-DESC', ( #115 ) );
#57 = PRODUCT_DEFINITION( 'NONE', 'NONE', #116, #2 );
#58 = MANIFOLD_SOLID_BREP( '1', #117 );
#59 = AXIS2_PLACEMENT_3D( '', #118, #119, #120 );
#62 = LENGTH_MEASURE_WITH_UNIT( LENGTH_MEASURE( 1.00000000000000 ), #121 );
#65 = DIMENSIONAL_EXPONENTS( 1.00000000000000, 0.000000000000000, 0.000000000000000, 0.000000000000000, 0.000000000000000, 0.000000000000000, 0.000000000000000 );
#67 = DIMENSIONAL_EXPONENTS( 0.000000000000000, 0.000000000000000, 0.000000000000000, 0.000000000000000, 0.000000000000000, 0.000000000000000, 0.000000000000000 );
#73 = SURFACE_STYLE_USAGE( .BOTH., #122 );
#74 = FACE_BOUND( '', #123, .T. );
#75 = FACE_BOUND( '', #124, .T. );
#76 = FACE_BOUND( '', #125, .T. );
#77 = FACE_OUTER_BOUND( '', #126, .T. );
#78 = PLANE( '', #127 );
#79 = SURFACE_STYLE_USAGE( .BOTH., #128 );
#80 = FACE_OUTER_BOUND( '', #129, .T. );
#81 = FACE_OUTER_BOUND( '', #130, .T. );
#82 = CYLINDRICAL_SURFACE( '', #131, 2.55270000000000 );
#83 = SURFACE_STYLE_USAGE( .BOTH., #132 );
#84 = FACE_OUTER_BOUND( '', #133, .T. );
#85 = FACE_OUTER_BOUND( '', #134, .T. );
#86 = CYLINDRICAL_SURFACE( '', #135, 2.55270000000000 );
#87 = SURFACE_STYLE_USAGE( .BOTH., #136 );
#88 = FACE_OUTER_BOUND( '', #137, .T. );
#89 = PLANE( '', #138 );
#90 = SURFACE_STYLE_USAGE( .BOTH., #139 );
#91 = FACE_OUTER_BOUND( '', #140, .T. );
#92 = CYLINDRICAL_SURFACE( '', #141, 6.35000000000000 );
#93 = SURFACE_STYLE_USAGE( .BOTH., #142 );
#94 = FACE_OUTER_BOUND( '', #143, .T. );
#95 = PLANE( '', #144 );
#96 = SURFACE_STYLE_USAGE( .BOTH., #145 );
#97 = FACE_OUTER_BOUND( '', #146, .T. );
#98 = PLANE( '', #147 );
#99 = SURFACE_STYLE_USAGE( .BOTH., #148 );
#100 = FACE_OUTER_BOUND( '', #149, .T. );
#101 = PLANE( '', #150 );
#102 = SURFACE_STYLE_USAGE( .BOTH., #151 );
#103 = FACE_OUTER_BOUND( '', #152, .T. );
#104 = FACE_OUTER_BOUND( '', #153, .T. );
#105 = CYLINDRICAL_SURFACE( '', #154, 2.55270000000000 );
#106 = SURFACE_STYLE_USAGE( .BOTH., #155 );
#107 = FACE_OUTER_BOUND( '', #156, .T. );
#108 = CYLINDRICAL_SURFACE( '', #157, 6.35000000000000 );
#109 = SURFACE_STYLE_USAGE( .BOTH., #158 );
#110 = FACE_BOUND( '', #159, .T. );
#111 = FACE_BOUND( '', #160, .T. );
#112 = FACE_BOUND( '', #161, .T. );
#113 = FACE_OUTER_BOUND( '', #162, .T. );
#114 = PLANE( '', #163 );
#115 = PRODUCT_CONTEXT( '', #21, 'mechanical' );
#116 = PRODUCT_DEFINITION_FORMATION_WITH_SPECIFIED_SOURCE( ' ', 'NONE', #56, .NOT_KNOWN. );
#117 = CLOSED_SHELL( '', ( #45, #47, #49, #43, #53, #35, #55, #41, #37, #39, #51 ) );
#118 = CARTESIAN_POINT( '', ( 0.000000000000000, 0.000000000000000, 0.000000000000000 ) );
#119 = DIRECTION( '', ( 0.000000000000000, 0.000000000000000, 1.00000000000000 ) );
#120 = DIRECTION( '', ( 1.00000000000000, 0.000000000000000, 0.000000000000000 ) );
#121 =  ( LENGTH_UNIT(  )NAMED_UNIT( #65 )SI_UNIT( .MILLI., .METRE. ) );
#122 = SURFACE_SIDE_STYLE( '', ( #165 ) );
#123 = EDGE_LOOP( '', ( #166 ) );
#124 = EDGE_LOOP( '', ( #167 ) );
#125 = EDGE_LOOP( '', ( #168 ) );
#126 = EDGE_LOOP( '', ( #169, #170, #171, #172, #173, #174 ) );
#127 = AXIS2_PLACEMENT_3D( '', #175, #176, #177 );
#128 = SURFACE_SIDE_STYLE( '', ( #178 ) );
#129 = EDGE_LOOP( '', ( #179 ) );
#130 = EDGE_LOOP( '', ( #180 ) );
#131 = AXIS2_PLACEMENT_3D( '', #181, #182, #183 );
#132 = SURFACE_SIDE_STYLE( '', ( #184 ) );
#133 = EDGE_LOOP( '', ( #185 ) );
#134 = EDGE_LOOP( '', ( #186 ) );
#135 = AXIS2_PLACEMENT_3D( '', #187, #188, #189 );
#136 = SURFACE_SIDE_STYLE( '', ( #190 ) );
#137 = EDGE_LOOP( '', ( #191, #192, #193, #194 ) );
#138 = AXIS2_PLACEMENT_3D( '', #195, #196, #197 );
#139 = SURFACE_SIDE_STYLE( '', ( #198 ) );
#140 = EDGE_LOOP( '', ( #199, #200, #201, #202 ) );
#141 = AXIS2_PLACEMENT_3D( '', #203, #204, #205 );
#142 = SURFACE_SIDE_STYLE( '', ( #206 ) );
#143 = EDGE_LOOP( '', ( #207, #208, #209, #210 ) );
#144 = AXIS2_PLACEMENT_3D( '', #211, #212, #213 );
#145 = SURFACE_SIDE_STYLE( '', ( #214 ) );
#146 = EDGE_LOOP( '', ( #215, #216, #217, #218 ) );
#147 = AXIS2_PLACEMENT_3D( '', #219, #220, #221 );
#148 = SURFACE_SIDE_STYLE( '', ( #222 ) );
#149 = EDGE_LOOP( '', ( #223, #224, #225, #226 ) );
#150 = AXIS2_PLACEMENT_3D( '', #227, #228, #229 );
#151 = SURFACE_SIDE_STYLE( '', ( #230 ) );
#152 = EDGE_LOOP( '', ( #231 ) );
#153 = EDGE_LOOP( '', ( #232 ) );
#154 = AXIS2_PLACEMENT_3D( '', #233, #234, #235 );
#155 = SURFACE_SIDE_STYLE( '', ( #236 ) );
#156 = EDGE_LOOP( '', ( #237, #238, #239, #240 ) );
#157 = AXIS2_PLACEMENT_3D( '', #241, #242, #243 );
#158 = SURFACE_SIDE_STYLE( '', ( #244 ) );
#159 = EDGE_LOOP( '', ( #245 ) );
#160 = EDGE_LOOP( '', ( #246 ) );
#161 = EDGE_LOOP( '', ( #247 ) );
#162 = EDGE_LOOP( '', ( #248, #249, #250, #251, #252, #253 ) );
#163 = AXIS2_PLACEMENT_3D( '', #254, #255, #256 );
#165 = SURFACE_STYLE_FILL_AREA( #257 );
#166 = ORIENTED_EDGE( '', *, *, #258, .F. );
#167 = ORIENTED_EDGE( '', *, *, #259, .F. );
#168 = ORIENTED_EDGE( '', *, *, #260, .F. );
#169 = ORIENTED_EDGE( '', *, *, #261, .F. );
#170 = ORIENTED_EDGE( '', *, *, #262, .T. );
#171 = ORIENTED_EDGE( '', *, *, #263, .F. );
#172 = ORIENTED_EDGE( '', *, *, #264, .T. );
#173 = ORIENTED_EDGE( '', *, *, #265, .F. );
#174 = ORIENTED_EDGE( '', *, *, #266, .F. );
#175 = CARTESIAN_POINT( '', ( 0.000000000000000, 0.000000000000000, 0.000000000000000 ) );
#176 = DIRECTION( '', ( 0.000000000000000, 0.000000000000000, 1.00000000000000 ) );
#177 = DIRECTION( '', ( 1.00000000000000, 0.000000000000000, 0.000000000000000 ) );
#178 = SURFACE_STYLE_FILL_AREA( #267 );
#179 = ORIENTED_EDGE( '', *, *, #268, .F. );
#180 = ORIENTED_EDGE( '', *, *, #260, .T. );
#181 = CARTESIAN_POINT( '', ( -431.006250000000, 12.7000000000000, -912.321957150821 ) );
#182 = DIRECTION( '', ( -0.000000000000000, -0.000000000000000, -1.00000000000000 ) );
#183 = DIRECTION( '', ( 1.00000000000000, 0.000000000000000, 0.000000000000000 ) );
#184 = SURFACE_STYLE_FILL_AREA( #269 );
#185 = ORIENTED_EDGE( '', *, *, #270, .F. );
#186 = ORIENTED_EDGE( '', *, *, #259, .T. );
#187 = CARTESIAN_POINT( '', ( 0.000000000000000, 12.7000000000000, -912.321957150821 ) );
#188 = DIRECTION( '', ( -0.000000000000000, -0.000000000000000, -1.00000000000000 ) );
#189 = DIRECTION( '', ( 1.00000000000000, 0.000000000000000, 0.000000000000000 ) );
#190 = SURFACE_STYLE_FILL_AREA( #271 );
#191 = ORIENTED_EDGE( '', *, *, #266, .T. );
#192 = ORIENTED_EDGE( '', *, *, #272, .F. );
#193 = ORIENTED_EDGE( '', *, *, #273, .F. );
#194 = ORIENTED_EDGE( '', *, *, #274, .T. );
#195 = CARTESIAN_POINT( '', ( 456.406250000000, 25.4000000000000, 1.90500000000000 ) );
#196 = DIRECTION( '', ( -6.08133118589610E-017, -1.00000000000000, 0.000000000000000 ) );
#197 = DIRECTION( '', ( 1.00000000000000, -6.08133118589610E-017, 0.000000000000000 ) );
#198 = SURFACE_STYLE_FILL_AREA( #275 );
#199 = ORIENTED_EDGE( '', *, *, #276, .F. );
#200 = ORIENTED_EDGE( '', *, *, #277, .F. );
#201 = ORIENTED_EDGE( '', *, *, #262, .F. );
#202 = ORIENTED_EDGE( '', *, *, #278, .F. );
#203 = CARTESIAN_POINT( '', ( 450.056250000000, -19.0500000000000, 1.90500000000000 ) );
#204 = DIRECTION( '', ( -0.000000000000000, -0.000000000000000, 1.00000000000000 ) );
#205 = DIRECTION( '', ( -1.00000000000000, 0.000000000000000, 0.000000000000000 ) );
#206 = SURFACE_STYLE_FILL_AREA( #279 );
#207 = ORIENTED_EDGE( '', *, *, #263, .T. );
#208 = ORIENTED_EDGE( '', *, *, #277, .T. );
#209 = ORIENTED_EDGE( '', *, *, #280, .F. );
#210 = ORIENTED_EDGE( '', *, *, #281, .T. );
#211 = CARTESIAN_POINT( '', ( -456.406250000000, -25.4000000000000, 1.90500000000000 ) );
#212 = DIRECTION( '', ( 6.08133118589610E-017, 1.00000000000000, 0.000000000000000 ) );
#213 = DIRECTION( '', ( -1.00000000000000, 6.08133118589610E-017, 0.000000000000000 ) );
#214 = SURFACE_STYLE_FILL_AREA( #282 );
#215 = ORIENTED_EDGE( '', *, *, #283, .F. );
#216 = ORIENTED_EDGE( '', *, *, #278, .T. );
#217 = ORIENTED_EDGE( '', *, *, #261, .T. );
#218 = ORIENTED_EDGE( '', *, *, #274, .F. );
#219 = CARTESIAN_POINT( '', ( 456.406250000000, -25.4000000000000, 1.90500000000000 ) );
#220 = DIRECTION( '', ( -1.00000000000000, 0.000000000000000, 0.000000000000000 ) );
#221 = DIRECTION( '', ( 0.000000000000000, 0.000000000000000, 1.00000000000000 ) );
#222 = SURFACE_STYLE_FILL_AREA( #284 );
#223 = ORIENTED_EDGE( '', *, *, #265, .T. );
#224 = ORIENTED_EDGE( '', *, *, #285, .T. );
#225 = ORIENTED_EDGE( '', *, *, #286, .F. );
#226 = ORIENTED_EDGE( '', *, *, #272, .T. );
#227 = CARTESIAN_POINT( '', ( -456.406250000000, 25.4000000000000, 1.90500000000000 ) );
#228 = DIRECTION( '', ( 1.00000000000000, 0.000000000000000, 0.000000000000000 ) );
#229 = DIRECTION( '', ( 0.000000000000000, 0.000000000000000, -1.00000000000000 ) );
#230 = SURFACE_STYLE_FILL_AREA( #287 );
#231 = ORIENTED_EDGE( '', *, *, #288, .F. );
#232 = ORIENTED_EDGE( '', *, *, #258, .T. );
#233 = CARTESIAN_POINT( '', ( 431.006250000000, 12.7000000000000, -912.321957150821 ) );
#234 = DIRECTION( '', ( -0.000000000000000, -0.000000000000000, -1.00000000000000 ) );
#235 = DIRECTION( '', ( 1.00000000000000, 0.000000000000000, 0.000000000000000 ) );
#236 = SURFACE_STYLE_FILL_AREA( #289 );
#237 = ORIENTED_EDGE( '', *, *, #290, .F. );
#238 = ORIENTED_EDGE( '', *, *, #285, .F. );
#239 = ORIENTED_EDGE( '', *, *, #264, .F. );
#240 = ORIENTED_EDGE( '', *, *, #281, .F. );
#241 = CARTESIAN_POINT( '', ( -450.056250000000, -19.0500000000000, 1.90500000000000 ) );
#242 = DIRECTION( '', ( -0.000000000000000, -0.000000000000000, 1.00000000000000 ) );
#243 = DIRECTION( '', ( -1.00000000000000, 0.000000000000000, 0.000000000000000 ) );
#244 = SURFACE_STYLE_FILL_AREA( #291 );
#245 = ORIENTED_EDGE( '', *, *, #288, .T. );
#246 = ORIENTED_EDGE( '', *, *, #270, .T. );
#247 = ORIENTED_EDGE( '', *, *, #268, .T. );
#248 = ORIENTED_EDGE( '', *, *, #280, .T. );
#249 = ORIENTED_EDGE( '', *, *, #276, .T. );
#250 = ORIENTED_EDGE( '', *, *, #283, .T. );
#251 = ORIENTED_EDGE( '', *, *, #273, .T. );
#252 = ORIENTED_EDGE( '', *, *, #286, .T. );
#253 = ORIENTED_EDGE( '', *, *, #290, .T. );
#254 = CARTESIAN_POINT( '', ( 0.000000000000000, 0.000000000000000, 1.90500000000000 ) );
#255 = DIRECTION( '', ( 0.000000000000000, 0.000000000000000, 1.00000000000000 ) );
#256 = DIRECTION( '', ( 1.00000000000000, 0.000000000000000, 0.000000000000000 ) );
#257 = FILL_AREA_STYLE( '', ( #292 ) );
#258 = EDGE_CURVE( '', #293, #293, #294, .F. );
#259 = EDGE_CURVE( '', #295, #295, #296, .F. );
#260 = EDGE_CURVE( '', #297, #297, #298, .F. );
#261 = EDGE_CURVE( '', #299, #300, #301, .T. );
#262 = EDGE_CURVE( '', #299, #302, #303, .F. );
#263 = EDGE_CURVE( '', #304, #302, #305, .T. );
#264 = EDGE_CURVE( '', #304, #306, #307, .F. );
#265 = EDGE_CURVE( '', #308, #306, #309, .T. );
#266 = EDGE_CURVE( '', #300, #308, #310, .T. );
#267 = FILL_AREA_STYLE( '', ( #311 ) );
#268 = EDGE_CURVE( '', #312, #312, #313, .T. );
#269 = FILL_AREA_STYLE( '', ( #314 ) );
#270 = EDGE_CURVE( '', #315, #315, #316, .T. );
#271 = FILL_AREA_STYLE( '', ( #317 ) );
#272 = EDGE_CURVE( '', #318, #308, #319, .T. );
#273 = EDGE_CURVE( '', #320, #318, #321, .T. );
#274 = EDGE_CURVE( '', #320, #300, #322, .T. );
#275 = FILL_AREA_STYLE( '', ( #323 ) );
#276 = EDGE_CURVE( '', #324, #325, #326, .T. );
#277 = EDGE_CURVE( '', #302, #324, #327, .F. );
#278 = EDGE_CURVE( '', #325, #299, #328, .T. );
#279 = FILL_AREA_STYLE( '', ( #329 ) );
#280 = EDGE_CURVE( '', #330, #324, #331, .T. );
#281 = EDGE_CURVE( '', #330, #304, #332, .T. );
#282 = FILL_AREA_STYLE( '', ( #333 ) );
#283 = EDGE_CURVE( '', #325, #320, #334, .T. );
#284 = FILL_AREA_STYLE( '', ( #335 ) );
#285 = EDGE_CURVE( '', #306, #336, #337, .F. );
#286 = EDGE_CURVE( '', #318, #336, #338, .T. );
#287 = FILL_AREA_STYLE( '', ( #339 ) );
#288 = EDGE_CURVE( '', #340, #340, #341, .T. );
#289 = FILL_AREA_STYLE( '', ( #342 ) );
#290 = EDGE_CURVE( '', #336, #330, #343, .T. );
#291 = FILL_AREA_STYLE( '', ( #344 ) );
#292 = FILL_AREA_STYLE_COLOUR( '', #345 );
#293 = VERTEX_POINT( '', #346 );
#294 = CIRCLE( '', #347, 2.55270000000000 );
#295 = VERTEX_POINT( '', #348 );
#296 = CIRCLE( '', #349, 2.55270000000000 );
#297 = VERTEX_POINT( '', #350 );
#298 = CIRCLE( '', #351, 2.55270000000000 );
#299 = VERTEX_POINT( '', #352 );
#300 = VERTEX_POINT( '', #353 );
#301 = LINE( '', #354, #355 );
#302 = VERTEX_POINT( '', #356 );
#303 = CIRCLE( '', #357, 6.35000000000000 );
#304 = VERTEX_POINT( '', #358 );
#305 = LINE( '', #359, #360 );
#306 = VERTEX_POINT( '', #361 );
#307 = CIRCLE( '', #362, 6.35000000000000 );
#308 = VERTEX_POINT( '', #363 );
#309 = LINE( '', #364, #365 );
#310 = LINE( '', #366, #367 );
#311 = FILL_AREA_STYLE_COLOUR( '', #368 );
#312 = VERTEX_POINT( '', #369 );
#313 = CIRCLE( '', #370, 2.55270000000000 );
#314 = FILL_AREA_STYLE_COLOUR( '', #371 );
#315 = VERTEX_POINT( '', #372 );
#316 = CIRCLE( '', #373, 2.55270000000000 );
#317 = FILL_AREA_STYLE_COLOUR( '', #374 );
#318 = VERTEX_POINT( '', #375 );
#319 = LINE( '', #376, #377 );
#320 = VERTEX_POINT( '', #378 );
#321 = LINE( '', #379, #380 );
#322 = LINE( '', #381, #382 );
#323 = FILL_AREA_STYLE_COLOUR( '', #383 );
#324 = VERTEX_POINT( '', #384 );
#325 = VERTEX_POINT( '', #385 );
#326 = CIRCLE( '', #386, 6.35000000000000 );
#327 = LINE( '', #387, #388 );
#328 = LINE( '', #389, #390 );
#329 = FILL_AREA_STYLE_COLOUR( '', #391 );
#330 = VERTEX_POINT( '', #392 );
#331 = LINE( '', #393, #394 );
#332 = LINE( '', #395, #396 );
#333 = FILL_AREA_STYLE_COLOUR( '', #397 );
#334 = LINE( '', #398, #399 );
#335 = FILL_AREA_STYLE_COLOUR( '', #400 );
#336 = VERTEX_POINT( '', #401 );
#337 = LINE( '', #402, #403 );
#338 = LINE( '', #404, #405 );
#339 = FILL_AREA_STYLE_COLOUR( '', #406 );
#340 = VERTEX_POINT( '', #407 );
#341 = CIRCLE( '', #408, 2.55270000000000 );
#342 = FILL_AREA_STYLE_COLOUR( '', #409 );
#343 = CIRCLE( '', #410, 6.35000000000000 );
#344 = FILL_AREA_STYLE_COLOUR( '', #411 );
#345 = COLOUR_RGB( '', 0.909803926944733, 0.898039221763611, 0.949019610881805 );
#346 = CARTESIAN_POINT( '', ( 433.558950000000, 12.7000000000000, 0.000000000000000 ) );
#347 = AXIS2_PLACEMENT_3D( '', #412, #413, #414 );
#348 = CARTESIAN_POINT( '', ( 2.55270000000000, 12.7000000000000, 0.000000000000000 ) );
#349 = AXIS2_PLACEMENT_3D( '', #415, #416, #417 );
#350 = CARTESIAN_POINT( '', ( -428.453550000000, 12.7000000000000, 0.000000000000000 ) );
#351 = AXIS2_PLACEMENT_3D( '', #418, #419, #420 );
#352 = CARTESIAN_POINT( '', ( 456.406250000000, -19.0500000000000, 0.000000000000000 ) );
#353 = CARTESIAN_POINT( '', ( 456.406250000000, 25.4000000000000, 0.000000000000000 ) );
#354 = CARTESIAN_POINT( '', ( 456.406250000000, -25.4000000000000, 0.000000000000000 ) );
#355 = VECTOR( '', #421, 1000.00000000000 );
#356 = CARTESIAN_POINT( '', ( 450.056250000000, -25.4000000000000, 0.000000000000000 ) );
#357 = AXIS2_PLACEMENT_3D( '', #422, #423, #424 );
#358 = CARTESIAN_POINT( '', ( -450.056250000000, -25.4000000000000, 0.000000000000000 ) );
#359 = CARTESIAN_POINT( '', ( -456.406250000000, -25.4000000000000, 0.000000000000000 ) );
#360 = VECTOR( '', #425, 1000.00000000000 );
#361 = CARTESIAN_POINT( '', ( -456.406250000000, -19.0500000000000, 0.000000000000000 ) );
#362 = AXIS2_PLACEMENT_3D( '', #426, #427, #428 );
#363 = CARTESIAN_POINT( '', ( -456.406250000000, 25.4000000000000, 0.000000000000000 ) );
#364 = CARTESIAN_POINT( '', ( -456.406250000000, 25.4000000000000, 0.000000000000000 ) );
#365 = VECTOR( '', #429, 1000.00000000000 );
#366 = CARTESIAN_POINT( '', ( 456.406250000000, 25.4000000000000, 0.000000000000000 ) );
#367 = VECTOR( '', #430, 1000.00000000000 );
#368 = COLOUR_RGB( '', 0.909803926944733, 0.898039221763611, 0.949019610881805 );
#369 = CARTESIAN_POINT( '', ( -428.453550000000, 12.7000000000000, 1.90500000000000 ) );
#370 = AXIS2_PLACEMENT_3D( '', #431, #432, #433 );
#371 = COLOUR_RGB( '', 0.909803926944733, 0.898039221763611, 0.949019610881805 );
#372 = CARTESIAN_POINT( '', ( 2.55270000000000, 12.7000000000000, 1.90500000000000 ) );
#373 = AXIS2_PLACEMENT_3D( '', #434, #435, #436 );
#374 = COLOUR_RGB( '', 0.909803926944733, 0.898039221763611, 0.949019610881805 );
#375 = CARTESIAN_POINT( '', ( -456.406250000000, 25.4000000000000, 1.90500000000000 ) );
#376 = CARTESIAN_POINT( '', ( -456.406250000000, 25.4000000000000, 1.90500000000000 ) );
#377 = VECTOR( '', #437, 1000.00000000000 );
#378 = CARTESIAN_POINT( '', ( 456.406250000000, 25.4000000000000, 1.90500000000000 ) );
#379 = CARTESIAN_POINT( '', ( 456.406250000000, 25.4000000000000, 1.90500000000000 ) );
#380 = VECTOR( '', #438, 1000.00000000000 );
#381 = CARTESIAN_POINT( '', ( 456.406250000000, 25.4000000000000, 1.90500000000000 ) );
#382 = VECTOR( '', #439, 1000.00000000000 );
#383 = COLOUR_RGB( '', 0.909803926944733, 0.898039221763611, 0.949019610881805 );
#384 = CARTESIAN_POINT( '', ( 450.056250000000, -25.4000000000000, 1.90500000000000 ) );
#385 = CARTESIAN_POINT( '', ( 456.406250000000, -19.0500000000000, 1.90500000000000 ) );
#386 = AXIS2_PLACEMENT_3D( '', #440, #441, #442 );
#387 = CARTESIAN_POINT( '', ( 450.056250000000, -25.4000000000000, 1.90500000000000 ) );
#388 = VECTOR( '', #443, 1000.00000000000 );
#389 = CARTESIAN_POINT( '', ( 456.406250000000, -19.0500000000000, 1.90500000000000 ) );
#390 = VECTOR( '', #444, 1000.00000000000 );
#391 = COLOUR_RGB( '', 0.909803926944733, 0.898039221763611, 0.949019610881805 );
#392 = CARTESIAN_POINT( '', ( -450.056250000000, -25.4000000000000, 1.90500000000000 ) );
#393 = CARTESIAN_POINT( '', ( -456.406250000000, -25.4000000000000, 1.90500000000000 ) );
#394 = VECTOR( '', #445, 1000.00000000000 );
#395 = CARTESIAN_POINT( '', ( -450.056250000000, -25.4000000000000, 1.90500000000000 ) );
#396 = VECTOR( '', #446, 1000.00000000000 );
#397 = COLOUR_RGB( '', 0.909803926944733, 0.898039221763611, 0.949019610881805 );
#398 = CARTESIAN_POINT( '', ( 456.406250000000, -25.4000000000000, 1.90500000000000 ) );
#399 = VECTOR( '', #447, 1000.00000000000 );
#400 = COLOUR_RGB( '', 0.909803926944733, 0.898039221763611, 0.949019610881805 );
#401 = CARTESIAN_POINT( '', ( -456.406250000000, -19.0500000000000, 1.90500000000000 ) );
#402 = CARTESIAN_POINT( '', ( -456.406250000000, -19.0500000000000, 1.90500000000000 ) );
#403 = VECTOR( '', #448, 1000.00000000000 );
#404 = CARTESIAN_POINT( '', ( -456.406250000000, 25.4000000000000, 1.90500000000000 ) );
#405 = VECTOR( '', #449, 1000.00000000000 );
#406 = COLOUR_RGB( '', 0.909803926944733, 0.898039221763611, 0.949019610881805 );
#407 = CARTESIAN_POINT( '', ( 433.558950000000, 12.7000000000000, 1.90500000000000 ) );
#408 = AXIS2_PLACEMENT_3D( '', #450, #451, #452 );
#409 = COLOUR_RGB( '', 0.909803926944733, 0.898039221763611, 0.949019610881805 );
#410 = AXIS2_PLACEMENT_3D( '', #453, #454, #455 );
#411 = COLOUR_RGB( '', 0.909803926944733, 0.898039221763611, 0.949019610881805 );
#412 = CARTESIAN_POINT( '', ( 431.006250000000, 12.7000000000000, 0.000000000000000 ) );
#413 = DIRECTION( '', ( 0.000000000000000, 0.000000000000000, 1.00000000000000 ) );
#414 = DIRECTION( '', ( 1.00000000000000, 0.000000000000000, 0.000000000000000 ) );
#415 = CARTESIAN_POINT( '', ( 0.000000000000000, 12.7000000000000, 0.000000000000000 ) );
#416 = DIRECTION( '', ( 0.000000000000000, 0.000000000000000, 1.00000000000000 ) );
#417 = DIRECTION( '', ( 1.00000000000000, 0.000000000000000, 0.000000000000000 ) );
#418 = CARTESIAN_POINT( '', ( -431.006250000000, 12.7000000000000, 0.000000000000000 ) );
#419 = DIRECTION( '', ( 0.000000000000000, 0.000000000000000, 1.00000000000000 ) );
#420 = DIRECTION( '', ( 1.00000000000000, 0.000000000000000, 0.000000000000000 ) );
#421 = DIRECTION( '', ( 0.000000000000000, 1.00000000000000, 0.000000000000000 ) );
#422 = CARTESIAN_POINT( '', ( 450.056250000000, -19.0500000000000, 0.000000000000000 ) );
#423 = DIRECTION( '', ( 0.000000000000000, 0.000000000000000, 1.00000000000000 ) );
#424 = DIRECTION( '', ( 1.00000000000000, 0.000000000000000, 0.000000000000000 ) );
#425 = DIRECTION( '', ( 1.00000000000000, -6.08133118589610E-017, 0.000000000000000 ) );
#426 = CARTESIAN_POINT( '', ( -450.056250000000, -19.0500000000000, 0.000000000000000 ) );
#427 = DIRECTION( '', ( 0.000000000000000, 0.000000000000000, 1.00000000000000 ) );
#428 = DIRECTION( '', ( 1.00000000000000, 0.000000000000000, 0.000000000000000 ) );
#429 = DIRECTION( '', ( 0.000000000000000, -1.00000000000000, 0.000000000000000 ) );
#430 = DIRECTION( '', ( -1.00000000000000, 6.08133118589610E-017, 0.000000000000000 ) );
#431 = CARTESIAN_POINT( '', ( -431.006250000000, 12.7000000000000, 1.90500000000000 ) );
#432 = DIRECTION( '', ( 0.000000000000000, 0.000000000000000, -1.00000000000000 ) );
#433 = DIRECTION( '', ( 1.00000000000000, 0.000000000000000, 0.000000000000000 ) );
#434 = CARTESIAN_POINT( '', ( 0.000000000000000, 12.7000000000000, 1.90500000000000 ) );
#435 = DIRECTION( '', ( 0.000000000000000, 0.000000000000000, -1.00000000000000 ) );
#436 = DIRECTION( '', ( 1.00000000000000, 0.000000000000000, 0.000000000000000 ) );
#437 = DIRECTION( '', ( 0.000000000000000, 0.000000000000000, -1.00000000000000 ) );
#438 = DIRECTION( '', ( -1.00000000000000, 6.08133118589610E-017, 0.000000000000000 ) );
#439 = DIRECTION( '', ( 0.000000000000000, 0.000000000000000, -1.00000000000000 ) );
#440 = CARTESIAN_POINT( '', ( 450.056250000000, -19.0500000000000, 1.90500000000000 ) );
#441 = DIRECTION( '', ( 0.000000000000000, 0.000000000000000, 1.00000000000000 ) );
#442 = DIRECTION( '', ( 1.00000000000000, 0.000000000000000, 0.000000000000000 ) );
#443 = DIRECTION( '', ( 0.000000000000000, 0.000000000000000, -1.00000000000000 ) );
#444 = DIRECTION( '', ( 0.000000000000000, 0.000000000000000, -1.00000000000000 ) );
#445 = DIRECTION( '', ( 1.00000000000000, -6.08133118589610E-017, 0.000000000000000 ) );
#446 = DIRECTION( '', ( 0.000000000000000, 0.000000000000000, -1.00000000000000 ) );
#447 = DIRECTION( '', ( 0.000000000000000, 1.00000000000000, 0.000000000000000 ) );
#448 = DIRECTION( '', ( 0.000000000000000, 0.000000000000000, -1.00000000000000 ) );
#449 = DIRECTION( '', ( 0.000000000000000, -1.00000000000000, 0.000000000000000 ) );
#450 = CARTESIAN_POINT( '', ( 431.006250000000, 12.7000000000000, 1.90500000000000 ) );
#451 = DIRECTION( '', ( 0.000000000000000, 0.000000000000000, -1.00000000000000 ) );
#452 = DIRECTION( '', ( 1.00000000000000, 0.000000000000000, 0.000000000000000 ) );
#453 = CARTESIAN_POINT( '', ( -450.056250000000, -19.0500000000000, 1.90500000000000 ) );
#454 = DIRECTION( '', ( 0.000000000000000, 0.000000000000000, 1.00000000000000 ) );
#455 = DIRECTION( '', ( 1.00000000000000, 0.000000000000000, 0.000000000000000 ) );
ENDSEC;
END-ISO-10303-21;
