ISO-10303-21;
HEADER;
FILE_DESCRIPTION( ( 'Unknown' ), '1' );
FILE_NAME( 'C:/STDBEL/ADSR/3D/ADSR30/ADSR30.stp', 'Unknown', ( 'Unknown' ), ( 'Unknown' ), 'PSStep 16.0.42', 'Unknown', '  ' );
FILE_SCHEMA( ( 'AUTOMOTIVE_DESIGN { 1 0 10303 214 1 1 1 1 }' ) );
ENDSEC;
DATA;
#1 = MECHANICAL_DESIGN_GEOMETRIC_PRESENTATION_REPRESENTATION( ' ', ( #10, #11, #12, #13, #14, #15, #16, #17, #18, #19, #20 ), #6 );
#2 = PRODUCT_DEFINITION_CONTEXT( '', #21, 'design' );
#3 = APPLICATION_PROTOCOL_DEFINITION( 'international standard', 'automotive_design', 2001, #21 );
#4 = PRODUCT_CATEGORY_RELATIONSHIP( 'NONE', 'NONE', #22, #23 );
#5 = SHAPE_DEFINITION_REPRESENTATION( #24, #25 );
#6 =  ( GEOMETRIC_REPRESENTATION_CONTEXT( 3 )GLOBAL_UNCERTAINTY_ASSIGNED_CONTEXT( ( #28 ) )GLOBAL_UNIT_ASSIGNED_CONTEXT( ( #30, #31, #32 ) )REPRESENTATION_CONTEXT( 'NONE', 'WORKSPACE' ) );
#10 = STYLED_ITEM( '', ( #34 ), #35 );
#11 = STYLED_ITEM( '', ( #36 ), #37 );
#12 = STYLED_ITEM( '', ( #38 ), #39 );
#13 = STYLED_ITEM( '', ( #40 ), #41 );
#14 = STYLED_ITEM( '', ( #42 ), #43 );
#15 = STYLED_ITEM( '', ( #44 ), #45 );
#16 = STYLED_ITEM( '', ( #46 ), #47 );
#17 = STYLED_ITEM( '', ( #48 ), #49 );
#18 = STYLED_ITEM( '', ( #50 ), #51 );
#19 = STYLED_ITEM( '', ( #52 ), #53 );
#20 = STYLED_ITEM( '', ( #54 ), #55 );
#21 = APPLICATION_CONTEXT( 'core data for automotive mechanical design processes' );
#22 = PRODUCT_CATEGORY( 'part', 'NONE' );
#23 = PRODUCT_RELATED_PRODUCT_CATEGORY( 'detail', ' ', ( #56 ) );
#24 = PRODUCT_DEFINITION_SHAPE( 'NONE', 'NONE', #57 );
#25 = ADVANCED_BREP_SHAPE_REPRESENTATION( '1', ( #58, #59 ), #6 );
#28 = UNCERTAINTY_MEASURE_WITH_UNIT( LENGTH_MEASURE( 0.00100000000000000 ), #30, '', '' );
#30 =  ( CONVERSION_BASED_UNIT( 'MILLIMETRE', #62 )LENGTH_UNIT(  )NAMED_UNIT( #65 ) );
#31 =  ( NAMED_UNIT( #67 )PLANE_ANGLE_UNIT(  )SI_UNIT( $, .RADIAN. ) );
#32 =  ( NAMED_UNIT( #67 )SI_UNIT( $, .STERADIAN. )SOLID_ANGLE_UNIT(  ) );
#34 = PRESENTATION_STYLE_ASSIGNMENT( ( #73 ) );
#35 = ADVANCED_FACE( '', ( #74, #75, #76, #77 ), #78, .T. );
#36 = PRESENTATION_STYLE_ASSIGNMENT( ( #79 ) );
#37 = ADVANCED_FACE( '', ( #80 ), #81, .F. );
#38 = PRESENTATION_STYLE_ASSIGNMENT( ( #82 ) );
#39 = ADVANCED_FACE( '', ( #83, #84, #85, #86 ), #87, .F. );
#40 = PRESENTATION_STYLE_ASSIGNMENT( ( #88 ) );
#41 = ADVANCED_FACE( '', ( #89 ), #90, .F. );
#42 = PRESENTATION_STYLE_ASSIGNMENT( ( #91 ) );
#43 = ADVANCED_FACE( '', ( #92, #93 ), #94, .F. );
#44 = PRESENTATION_STYLE_ASSIGNMENT( ( #95 ) );
#45 = ADVANCED_FACE( '', ( #96 ), #97, .F. );
#46 = PRESENTATION_STYLE_ASSIGNMENT( ( #98 ) );
#47 = ADVANCED_FACE( '', ( #99 ), #100, .F. );
#48 = PRESENTATION_STYLE_ASSIGNMENT( ( #101 ) );
#49 = ADVANCED_FACE( '', ( #102 ), #103, .T. );
#50 = PRESENTATION_STYLE_ASSIGNMENT( ( #104 ) );
#51 = ADVANCED_FACE( '', ( #105 ), #106, .T. );
#52 = PRESENTATION_STYLE_ASSIGNMENT( ( #107 ) );
#53 = ADVANCED_FACE( '', ( #108, #109 ), #110, .F. );
#54 = PRESENTATION_STYLE_ASSIGNMENT( ( #111 ) );
#55 = ADVANCED_FACE( '', ( #112, #113 ), #114, .F. );
#56 = PRODUCT( '1', '1', 'PART-1-DESC', ( #115 ) );
#57 = PRODUCT_DEFINITION( 'NONE', 'NONE', #116, #2 );
#58 = MANIFOLD_SOLID_BREP( '1', #117 );
#59 = AXIS2_PLACEMENT_3D( '', #118, #119, #120 );
#62 = LENGTH_MEASURE_WITH_UNIT( LENGTH_MEASURE( 1.00000000000000 ), #121 );
#65 = DIMENSIONAL_EXPONENTS( 1.00000000000000, 0.000000000000000, 0.000000000000000, 0.000000000000000, 0.000000000000000, 0.000000000000000, 0.000000000000000 );
#67 = DIMENSIONAL_EXPONENTS( 0.000000000000000, 0.000000000000000, 0.000000000000000, 0.000000000000000, 0.000000000000000, 0.000000000000000, 0.000000000000000 );
#73 = SURFACE_STYLE_USAGE( .BOTH., #122 );
#74 = FACE_BOUND( '', #123, .T. );
#75 = FACE_BOUND( '', #124, .T. );
#76 = FACE_BOUND( '', #125, .T. );
#77 = FACE_OUTER_BOUND( '', #126, .T. );
#78 = PLANE( '', #127 );
#79 = SURFACE_STYLE_USAGE( .BOTH., #128 );
#80 = FACE_OUTER_BOUND( '', #129, .T. );
#81 = PLANE( '', #130 );
#82 = SURFACE_STYLE_USAGE( .BOTH., #131 );
#83 = FACE_BOUND( '', #132, .T. );
#84 = FACE_BOUND( '', #133, .T. );
#85 = FACE_BOUND( '', #134, .T. );
#86 = FACE_OUTER_BOUND( '', #135, .T. );
#87 = PLANE( '', #136 );
#88 = SURFACE_STYLE_USAGE( .BOTH., #137 );
#89 = FACE_OUTER_BOUND( '', #138, .T. );
#90 = PLANE( '', #139 );
#91 = SURFACE_STYLE_USAGE( .BOTH., #140 );
#92 = FACE_OUTER_BOUND( '', #141, .T. );
#93 = FACE_OUTER_BOUND( '', #142, .T. );
#94 = CYLINDRICAL_SURFACE( '', #143, 2.55270000000000 );
#95 = SURFACE_STYLE_USAGE( .BOTH., #144 );
#96 = FACE_OUTER_BOUND( '', #145, .T. );
#97 = PLANE( '', #146 );
#98 = SURFACE_STYLE_USAGE( .BOTH., #147 );
#99 = FACE_OUTER_BOUND( '', #148, .T. );
#100 = PLANE( '', #149 );
#101 = SURFACE_STYLE_USAGE( .BOTH., #150 );
#102 = FACE_OUTER_BOUND( '', #151, .T. );
#103 = CYLINDRICAL_SURFACE( '', #152, 6.35000000000000 );
#104 = SURFACE_STYLE_USAGE( .BOTH., #153 );
#105 = FACE_OUTER_BOUND( '', #154, .T. );
#106 = CYLINDRICAL_SURFACE( '', #155, 6.35000000000000 );
#107 = SURFACE_STYLE_USAGE( .BOTH., #156 );
#108 = FACE_OUTER_BOUND( '', #157, .T. );
#109 = FACE_OUTER_BOUND( '', #158, .T. );
#110 = CYLINDRICAL_SURFACE( '', #159, 2.55270000000000 );
#111 = SURFACE_STYLE_USAGE( .BOTH., #160 );
#112 = FACE_OUTER_BOUND( '', #161, .T. );
#113 = FACE_OUTER_BOUND( '', #162, .T. );
#114 = CYLINDRICAL_SURFACE( '', #163, 2.55270000000000 );
#115 = PRODUCT_CONTEXT( '', #21, 'mechanical' );
#116 = PRODUCT_DEFINITION_FORMATION_WITH_SPECIFIED_SOURCE( ' ', 'NONE', #56, .NOT_KNOWN. );
#117 = CLOSED_SHELL( '', ( #37, #45, #41, #49, #51, #39, #35, #47, #43, #55, #53 ) );
#118 = CARTESIAN_POINT( '', ( 0.000000000000000, 0.000000000000000, 0.000000000000000 ) );
#119 = DIRECTION( '', ( 0.000000000000000, 0.000000000000000, 1.00000000000000 ) );
#120 = DIRECTION( '', ( 1.00000000000000, 0.000000000000000, 0.000000000000000 ) );
#121 =  ( LENGTH_UNIT(  )NAMED_UNIT( #65 )SI_UNIT( .MILLI., .METRE. ) );
#122 = SURFACE_SIDE_STYLE( '', ( #165 ) );
#123 = EDGE_LOOP( '', ( #166 ) );
#124 = EDGE_LOOP( '', ( #167 ) );
#125 = EDGE_LOOP( '', ( #168 ) );
#126 = EDGE_LOOP( '', ( #169, #170, #171, #172, #173, #174 ) );
#127 = AXIS2_PLACEMENT_3D( '', #175, #176, #177 );
#128 = SURFACE_SIDE_STYLE( '', ( #178 ) );
#129 = EDGE_LOOP( '', ( #179, #180, #181, #182 ) );
#130 = AXIS2_PLACEMENT_3D( '', #183, #184, #185 );
#131 = SURFACE_SIDE_STYLE( '', ( #186 ) );
#132 = EDGE_LOOP( '', ( #187 ) );
#133 = EDGE_LOOP( '', ( #188 ) );
#134 = EDGE_LOOP( '', ( #189 ) );
#135 = EDGE_LOOP( '', ( #190, #191, #192, #193, #194, #195 ) );
#136 = AXIS2_PLACEMENT_3D( '', #196, #197, #198 );
#137 = SURFACE_SIDE_STYLE( '', ( #199 ) );
#138 = EDGE_LOOP( '', ( #200, #201, #202, #203 ) );
#139 = AXIS2_PLACEMENT_3D( '', #204, #205, #206 );
#140 = SURFACE_SIDE_STYLE( '', ( #207 ) );
#141 = EDGE_LOOP( '', ( #208 ) );
#142 = EDGE_LOOP( '', ( #209 ) );
#143 = AXIS2_PLACEMENT_3D( '', #210, #211, #212 );
#144 = SURFACE_SIDE_STYLE( '', ( #213 ) );
#145 = EDGE_LOOP( '', ( #214, #215, #216, #217 ) );
#146 = AXIS2_PLACEMENT_3D( '', #218, #219, #220 );
#147 = SURFACE_SIDE_STYLE( '', ( #221 ) );
#148 = EDGE_LOOP( '', ( #222, #223, #224, #225 ) );
#149 = AXIS2_PLACEMENT_3D( '', #226, #227, #228 );
#150 = SURFACE_SIDE_STYLE( '', ( #229 ) );
#151 = EDGE_LOOP( '', ( #230, #231, #232, #233 ) );
#152 = AXIS2_PLACEMENT_3D( '', #234, #235, #236 );
#153 = SURFACE_SIDE_STYLE( '', ( #237 ) );
#154 = EDGE_LOOP( '', ( #238, #239, #240, #241 ) );
#155 = AXIS2_PLACEMENT_3D( '', #242, #243, #244 );
#156 = SURFACE_SIDE_STYLE( '', ( #245 ) );
#157 = EDGE_LOOP( '', ( #246 ) );
#158 = EDGE_LOOP( '', ( #247 ) );
#159 = AXIS2_PLACEMENT_3D( '', #248, #249, #250 );
#160 = SURFACE_SIDE_STYLE( '', ( #251 ) );
#161 = EDGE_LOOP( '', ( #252 ) );
#162 = EDGE_LOOP( '', ( #253 ) );
#163 = AXIS2_PLACEMENT_3D( '', #254, #255, #256 );
#165 = SURFACE_STYLE_FILL_AREA( #257 );
#166 = ORIENTED_EDGE( '', *, *, #258, .T. );
#167 = ORIENTED_EDGE( '', *, *, #259, .T. );
#168 = ORIENTED_EDGE( '', *, *, #260, .T. );
#169 = ORIENTED_EDGE( '', *, *, #261, .T. );
#170 = ORIENTED_EDGE( '', *, *, #262, .T. );
#171 = ORIENTED_EDGE( '', *, *, #263, .T. );
#172 = ORIENTED_EDGE( '', *, *, #264, .T. );
#173 = ORIENTED_EDGE( '', *, *, #265, .T. );
#174 = ORIENTED_EDGE( '', *, *, #266, .T. );
#175 = CARTESIAN_POINT( '', ( 0.000000000000000, 0.000000000000000, 1.90500000000000 ) );
#176 = DIRECTION( '', ( 0.000000000000000, 0.000000000000000, 1.00000000000000 ) );
#177 = DIRECTION( '', ( 1.00000000000000, 0.000000000000000, 0.000000000000000 ) );
#178 = SURFACE_STYLE_FILL_AREA( #267 );
#179 = ORIENTED_EDGE( '', *, *, #268, .T. );
#180 = ORIENTED_EDGE( '', *, *, #269, .T. );
#181 = ORIENTED_EDGE( '', *, *, #261, .F. );
#182 = ORIENTED_EDGE( '', *, *, #270, .T. );
#183 = CARTESIAN_POINT( '', ( -380.206250000000, -25.4000000000000, 1.90500000000000 ) );
#184 = DIRECTION( '', ( -5.93136098833159E-017, 1.00000000000000, 0.000000000000000 ) );
#185 = DIRECTION( '', ( -1.00000000000000, -5.93136098833159E-017, 0.000000000000000 ) );
#186 = SURFACE_STYLE_FILL_AREA( #271 );
#187 = ORIENTED_EDGE( '', *, *, #272, .F. );
#188 = ORIENTED_EDGE( '', *, *, #273, .F. );
#189 = ORIENTED_EDGE( '', *, *, #274, .F. );
#190 = ORIENTED_EDGE( '', *, *, #275, .F. );
#191 = ORIENTED_EDGE( '', *, *, #276, .T. );
#192 = ORIENTED_EDGE( '', *, *, #268, .F. );
#193 = ORIENTED_EDGE( '', *, *, #277, .T. );
#194 = ORIENTED_EDGE( '', *, *, #278, .F. );
#195 = ORIENTED_EDGE( '', *, *, #279, .F. );
#196 = CARTESIAN_POINT( '', ( 0.000000000000000, 0.000000000000000, 0.000000000000000 ) );
#197 = DIRECTION( '', ( 0.000000000000000, 0.000000000000000, 1.00000000000000 ) );
#198 = DIRECTION( '', ( 1.00000000000000, 0.000000000000000, 0.000000000000000 ) );
#199 = SURFACE_STYLE_FILL_AREA( #280 );
#200 = ORIENTED_EDGE( '', *, *, #278, .T. );
#201 = ORIENTED_EDGE( '', *, *, #281, .T. );
#202 = ORIENTED_EDGE( '', *, *, #265, .F. );
#203 = ORIENTED_EDGE( '', *, *, #282, .T. );
#204 = CARTESIAN_POINT( '', ( -380.206250000000, 25.4000000000000, 1.90500000000000 ) );
#205 = DIRECTION( '', ( 1.00000000000000, 0.000000000000000, 0.000000000000000 ) );
#206 = DIRECTION( '', ( 0.000000000000000, 0.000000000000000, -1.00000000000000 ) );
#207 = SURFACE_STYLE_FILL_AREA( #283 );
#208 = ORIENTED_EDGE( '', *, *, #260, .F. );
#209 = ORIENTED_EDGE( '', *, *, #274, .T. );
#210 = CARTESIAN_POINT( '', ( -354.806250000000, 12.7000000000000, -760.204860309687 ) );
#211 = DIRECTION( '', ( -0.000000000000000, -0.000000000000000, -1.00000000000000 ) );
#212 = DIRECTION( '', ( 1.00000000000000, 0.000000000000000, 0.000000000000000 ) );
#213 = SURFACE_STYLE_FILL_AREA( #284 );
#214 = ORIENTED_EDGE( '', *, *, #263, .F. );
#215 = ORIENTED_EDGE( '', *, *, #285, .T. );
#216 = ORIENTED_EDGE( '', *, *, #275, .T. );
#217 = ORIENTED_EDGE( '', *, *, #286, .F. );
#218 = CARTESIAN_POINT( '', ( 380.206250000000, -25.4000000000000, 1.90500000000000 ) );
#219 = DIRECTION( '', ( -1.00000000000000, 0.000000000000000, 0.000000000000000 ) );
#220 = DIRECTION( '', ( 0.000000000000000, 0.000000000000000, 1.00000000000000 ) );
#221 = SURFACE_STYLE_FILL_AREA( #287 );
#222 = ORIENTED_EDGE( '', *, *, #279, .T. );
#223 = ORIENTED_EDGE( '', *, *, #282, .F. );
#224 = ORIENTED_EDGE( '', *, *, #264, .F. );
#225 = ORIENTED_EDGE( '', *, *, #286, .T. );
#226 = CARTESIAN_POINT( '', ( 380.206250000000, 25.4000000000000, 1.90500000000000 ) );
#227 = DIRECTION( '', ( -5.93136098833159E-017, -1.00000000000000, 0.000000000000000 ) );
#228 = DIRECTION( '', ( 1.00000000000000, -5.93136098833159E-017, 0.000000000000000 ) );
#229 = SURFACE_STYLE_FILL_AREA( #288 );
#230 = ORIENTED_EDGE( '', *, *, #262, .F. );
#231 = ORIENTED_EDGE( '', *, *, #269, .F. );
#232 = ORIENTED_EDGE( '', *, *, #276, .F. );
#233 = ORIENTED_EDGE( '', *, *, #285, .F. );
#234 = CARTESIAN_POINT( '', ( 373.856250000000, -19.0500000000000, 1.90500000000000 ) );
#235 = DIRECTION( '', ( -0.000000000000000, -0.000000000000000, 1.00000000000000 ) );
#236 = DIRECTION( '', ( -1.00000000000000, 0.000000000000000, 0.000000000000000 ) );
#237 = SURFACE_STYLE_FILL_AREA( #289 );
#238 = ORIENTED_EDGE( '', *, *, #266, .F. );
#239 = ORIENTED_EDGE( '', *, *, #281, .F. );
#240 = ORIENTED_EDGE( '', *, *, #277, .F. );
#241 = ORIENTED_EDGE( '', *, *, #270, .F. );
#242 = CARTESIAN_POINT( '', ( -373.856250000000, -19.0500000000000, 1.90500000000000 ) );
#243 = DIRECTION( '', ( -0.000000000000000, -0.000000000000000, 1.00000000000000 ) );
#244 = DIRECTION( '', ( -1.00000000000000, 0.000000000000000, 0.000000000000000 ) );
#245 = SURFACE_STYLE_FILL_AREA( #290 );
#246 = ORIENTED_EDGE( '', *, *, #258, .F. );
#247 = ORIENTED_EDGE( '', *, *, #272, .T. );
#248 = CARTESIAN_POINT( '', ( 354.806250000000, 12.7000000000000, -760.204860309687 ) );
#249 = DIRECTION( '', ( -0.000000000000000, -0.000000000000000, -1.00000000000000 ) );
#250 = DIRECTION( '', ( 1.00000000000000, 0.000000000000000, 0.000000000000000 ) );
#251 = SURFACE_STYLE_FILL_AREA( #291 );
#252 = ORIENTED_EDGE( '', *, *, #259, .F. );
#253 = ORIENTED_EDGE( '', *, *, #273, .T. );
#254 = CARTESIAN_POINT( '', ( 0.000000000000000, 12.7000000000000, -760.204860309687 ) );
#255 = DIRECTION( '', ( -0.000000000000000, -0.000000000000000, -1.00000000000000 ) );
#256 = DIRECTION( '', ( 1.00000000000000, 0.000000000000000, 0.000000000000000 ) );
#257 = FILL_AREA_STYLE( '', ( #292 ) );
#258 = EDGE_CURVE( '', #293, #293, #294, .T. );
#259 = EDGE_CURVE( '', #295, #295, #296, .T. );
#260 = EDGE_CURVE( '', #297, #297, #298, .T. );
#261 = EDGE_CURVE( '', #299, #300, #301, .T. );
#262 = EDGE_CURVE( '', #300, #302, #303, .T. );
#263 = EDGE_CURVE( '', #302, #304, #305, .T. );
#264 = EDGE_CURVE( '', #304, #306, #307, .T. );
#265 = EDGE_CURVE( '', #306, #308, #309, .T. );
#266 = EDGE_CURVE( '', #308, #299, #310, .T. );
#267 = FILL_AREA_STYLE( '', ( #311 ) );
#268 = EDGE_CURVE( '', #312, #313, #314, .T. );
#269 = EDGE_CURVE( '', #313, #300, #315, .F. );
#270 = EDGE_CURVE( '', #299, #312, #316, .T. );
#271 = FILL_AREA_STYLE( '', ( #317 ) );
#272 = EDGE_CURVE( '', #318, #318, #319, .F. );
#273 = EDGE_CURVE( '', #320, #320, #321, .F. );
#274 = EDGE_CURVE( '', #322, #322, #323, .F. );
#275 = EDGE_CURVE( '', #324, #325, #326, .T. );
#276 = EDGE_CURVE( '', #324, #313, #327, .F. );
#277 = EDGE_CURVE( '', #312, #328, #329, .F. );
#278 = EDGE_CURVE( '', #330, #328, #331, .T. );
#279 = EDGE_CURVE( '', #325, #330, #332, .T. );
#280 = FILL_AREA_STYLE( '', ( #333 ) );
#281 = EDGE_CURVE( '', #328, #308, #334, .F. );
#282 = EDGE_CURVE( '', #306, #330, #335, .T. );
#283 = FILL_AREA_STYLE( '', ( #336 ) );
#284 = FILL_AREA_STYLE( '', ( #337 ) );
#285 = EDGE_CURVE( '', #302, #324, #338, .T. );
#286 = EDGE_CURVE( '', #304, #325, #339, .T. );
#287 = FILL_AREA_STYLE( '', ( #340 ) );
#288 = FILL_AREA_STYLE( '', ( #341 ) );
#289 = FILL_AREA_STYLE( '', ( #342 ) );
#290 = FILL_AREA_STYLE( '', ( #343 ) );
#291 = FILL_AREA_STYLE( '', ( #344 ) );
#292 = FILL_AREA_STYLE_COLOUR( '', #345 );
#293 = VERTEX_POINT( '', #346 );
#294 = CIRCLE( '', #347, 2.55270000000000 );
#295 = VERTEX_POINT( '', #348 );
#296 = CIRCLE( '', #349, 2.55270000000000 );
#297 = VERTEX_POINT( '', #350 );
#298 = CIRCLE( '', #351, 2.55270000000000 );
#299 = VERTEX_POINT( '', #352 );
#300 = VERTEX_POINT( '', #353 );
#301 = LINE( '', #354, #355 );
#302 = VERTEX_POINT( '', #356 );
#303 = CIRCLE( '', #357, 6.35000000000000 );
#304 = VERTEX_POINT( '', #358 );
#305 = LINE( '', #359, #360 );
#306 = VERTEX_POINT( '', #361 );
#307 = LINE( '', #362, #363 );
#308 = VERTEX_POINT( '', #364 );
#309 = LINE( '', #365, #366 );
#310 = CIRCLE( '', #367, 6.35000000000000 );
#311 = FILL_AREA_STYLE_COLOUR( '', #368 );
#312 = VERTEX_POINT( '', #369 );
#313 = VERTEX_POINT( '', #370 );
#314 = LINE( '', #371, #372 );
#315 = LINE( '', #373, #374 );
#316 = LINE( '', #375, #376 );
#317 = FILL_AREA_STYLE_COLOUR( '', #377 );
#318 = VERTEX_POINT( '', #378 );
#319 = CIRCLE( '', #379, 2.55270000000000 );
#320 = VERTEX_POINT( '', #380 );
#321 = CIRCLE( '', #381, 2.55270000000000 );
#322 = VERTEX_POINT( '', #382 );
#323 = CIRCLE( '', #383, 2.55270000000000 );
#324 = VERTEX_POINT( '', #384 );
#325 = VERTEX_POINT( '', #385 );
#326 = LINE( '', #386, #387 );
#327 = CIRCLE( '', #388, 6.35000000000000 );
#328 = VERTEX_POINT( '', #389 );
#329 = CIRCLE( '', #390, 6.35000000000000 );
#330 = VERTEX_POINT( '', #391 );
#331 = LINE( '', #392, #393 );
#332 = LINE( '', #394, #395 );
#333 = FILL_AREA_STYLE_COLOUR( '', #396 );
#334 = LINE( '', #397, #398 );
#335 = LINE( '', #399, #400 );
#336 = FILL_AREA_STYLE_COLOUR( '', #401 );
#337 = FILL_AREA_STYLE_COLOUR( '', #402 );
#338 = LINE( '', #403, #404 );
#339 = LINE( '', #405, #406 );
#340 = FILL_AREA_STYLE_COLOUR( '', #407 );
#341 = FILL_AREA_STYLE_COLOUR( '', #408 );
#342 = FILL_AREA_STYLE_COLOUR( '', #409 );
#343 = FILL_AREA_STYLE_COLOUR( '', #410 );
#344 = FILL_AREA_STYLE_COLOUR( '', #411 );
#345 = COLOUR_RGB( '', 0.909803926944733, 0.898039221763611, 0.949019610881805 );
#346 = CARTESIAN_POINT( '', ( 357.358950000000, 12.7000000000000, 1.90500000000000 ) );
#347 = AXIS2_PLACEMENT_3D( '', #412, #413, #414 );
#348 = CARTESIAN_POINT( '', ( 2.55270000000000, 12.7000000000000, 1.90500000000000 ) );
#349 = AXIS2_PLACEMENT_3D( '', #415, #416, #417 );
#350 = CARTESIAN_POINT( '', ( -352.253550000000, 12.7000000000000, 1.90500000000000 ) );
#351 = AXIS2_PLACEMENT_3D( '', #418, #419, #420 );
#352 = CARTESIAN_POINT( '', ( -373.856250000000, -25.4000000000000, 1.90500000000000 ) );
#353 = CARTESIAN_POINT( '', ( 373.856250000000, -25.4000000000000, 1.90500000000000 ) );
#354 = CARTESIAN_POINT( '', ( -380.206250000000, -25.4000000000000, 1.90500000000000 ) );
#355 = VECTOR( '', #421, 1000.00000000000 );
#356 = CARTESIAN_POINT( '', ( 380.206250000000, -19.0500000000000, 1.90500000000000 ) );
#357 = AXIS2_PLACEMENT_3D( '', #422, #423, #424 );
#358 = CARTESIAN_POINT( '', ( 380.206250000000, 25.4000000000000, 1.90500000000000 ) );
#359 = CARTESIAN_POINT( '', ( 380.206250000000, -25.4000000000000, 1.90500000000000 ) );
#360 = VECTOR( '', #425, 1000.00000000000 );
#361 = CARTESIAN_POINT( '', ( -380.206250000000, 25.4000000000000, 1.90500000000000 ) );
#362 = CARTESIAN_POINT( '', ( 380.206250000000, 25.4000000000000, 1.90500000000000 ) );
#363 = VECTOR( '', #426, 1000.00000000000 );
#364 = CARTESIAN_POINT( '', ( -380.206250000000, -19.0500000000000, 1.90500000000000 ) );
#365 = CARTESIAN_POINT( '', ( -380.206250000000, 25.4000000000000, 1.90500000000000 ) );
#366 = VECTOR( '', #427, 1000.00000000000 );
#367 = AXIS2_PLACEMENT_3D( '', #428, #429, #430 );
#368 = COLOUR_RGB( '', 0.909803926944733, 0.898039221763611, 0.949019610881805 );
#369 = CARTESIAN_POINT( '', ( -373.856250000000, -25.4000000000000, 0.000000000000000 ) );
#370 = CARTESIAN_POINT( '', ( 373.856250000000, -25.4000000000000, 0.000000000000000 ) );
#371 = CARTESIAN_POINT( '', ( -380.206250000000, -25.4000000000000, 0.000000000000000 ) );
#372 = VECTOR( '', #431, 1000.00000000000 );
#373 = CARTESIAN_POINT( '', ( 373.856250000000, -25.4000000000000, 1.90500000000000 ) );
#374 = VECTOR( '', #432, 1000.00000000000 );
#375 = CARTESIAN_POINT( '', ( -373.856250000000, -25.4000000000000, 1.90500000000000 ) );
#376 = VECTOR( '', #433, 1000.00000000000 );
#377 = COLOUR_RGB( '', 0.909803926944733, 0.898039221763611, 0.949019610881805 );
#378 = CARTESIAN_POINT( '', ( 357.358950000000, 12.7000000000000, 0.000000000000000 ) );
#379 = AXIS2_PLACEMENT_3D( '', #434, #435, #436 );
#380 = CARTESIAN_POINT( '', ( 2.55270000000000, 12.7000000000000, 0.000000000000000 ) );
#381 = AXIS2_PLACEMENT_3D( '', #437, #438, #439 );
#382 = CARTESIAN_POINT( '', ( -352.253550000000, 12.7000000000000, 0.000000000000000 ) );
#383 = AXIS2_PLACEMENT_3D( '', #440, #441, #442 );
#384 = CARTESIAN_POINT( '', ( 380.206250000000, -19.0500000000000, 0.000000000000000 ) );
#385 = CARTESIAN_POINT( '', ( 380.206250000000, 25.4000000000000, 0.000000000000000 ) );
#386 = CARTESIAN_POINT( '', ( 380.206250000000, -25.4000000000000, 0.000000000000000 ) );
#387 = VECTOR( '', #443, 1000.00000000000 );
#388 = AXIS2_PLACEMENT_3D( '', #444, #445, #446 );
#389 = CARTESIAN_POINT( '', ( -380.206250000000, -19.0500000000000, 0.000000000000000 ) );
#390 = AXIS2_PLACEMENT_3D( '', #447, #448, #449 );
#391 = CARTESIAN_POINT( '', ( -380.206250000000, 25.4000000000000, 0.000000000000000 ) );
#392 = CARTESIAN_POINT( '', ( -380.206250000000, 25.4000000000000, 0.000000000000000 ) );
#393 = VECTOR( '', #450, 1000.00000000000 );
#394 = CARTESIAN_POINT( '', ( 380.206250000000, 25.4000000000000, 0.000000000000000 ) );
#395 = VECTOR( '', #451, 1000.00000000000 );
#396 = COLOUR_RGB( '', 0.909803926944733, 0.898039221763611, 0.949019610881805 );
#397 = CARTESIAN_POINT( '', ( -380.206250000000, -19.0500000000000, 1.90500000000000 ) );
#398 = VECTOR( '', #452, 1000.00000000000 );
#399 = CARTESIAN_POINT( '', ( -380.206250000000, 25.4000000000000, 1.90500000000000 ) );
#400 = VECTOR( '', #453, 1000.00000000000 );
#401 = COLOUR_RGB( '', 0.909803926944733, 0.898039221763611, 0.949019610881805 );
#402 = COLOUR_RGB( '', 0.909803926944733, 0.898039221763611, 0.949019610881805 );
#403 = CARTESIAN_POINT( '', ( 380.206250000000, -19.0500000000000, 1.90500000000000 ) );
#404 = VECTOR( '', #454, 1000.00000000000 );
#405 = CARTESIAN_POINT( '', ( 380.206250000000, 25.4000000000000, 1.90500000000000 ) );
#406 = VECTOR( '', #455, 1000.00000000000 );
#407 = COLOUR_RGB( '', 0.909803926944733, 0.898039221763611, 0.949019610881805 );
#408 = COLOUR_RGB( '', 0.909803926944733, 0.898039221763611, 0.949019610881805 );
#409 = COLOUR_RGB( '', 0.909803926944733, 0.898039221763611, 0.949019610881805 );
#410 = COLOUR_RGB( '', 0.909803926944733, 0.898039221763611, 0.949019610881805 );
#411 = COLOUR_RGB( '', 0.909803926944733, 0.898039221763611, 0.949019610881805 );
#412 = CARTESIAN_POINT( '', ( 354.806250000000, 12.7000000000000, 1.90500000000000 ) );
#413 = DIRECTION( '', ( 0.000000000000000, 0.000000000000000, -1.00000000000000 ) );
#414 = DIRECTION( '', ( 1.00000000000000, 0.000000000000000, 0.000000000000000 ) );
#415 = CARTESIAN_POINT( '', ( 0.000000000000000, 12.7000000000000, 1.90500000000000 ) );
#416 = DIRECTION( '', ( 0.000000000000000, 0.000000000000000, -1.00000000000000 ) );
#417 = DIRECTION( '', ( 1.00000000000000, 0.000000000000000, 0.000000000000000 ) );
#418 = CARTESIAN_POINT( '', ( -354.806250000000, 12.7000000000000, 1.90500000000000 ) );
#419 = DIRECTION( '', ( 0.000000000000000, 0.000000000000000, -1.00000000000000 ) );
#420 = DIRECTION( '', ( 1.00000000000000, 0.000000000000000, 0.000000000000000 ) );
#421 = DIRECTION( '', ( 1.00000000000000, 5.93136098833160E-017, 0.000000000000000 ) );
#422 = CARTESIAN_POINT( '', ( 373.856250000000, -19.0500000000000, 1.90500000000000 ) );
#423 = DIRECTION( '', ( 0.000000000000000, 0.000000000000000, 1.00000000000000 ) );
#424 = DIRECTION( '', ( 1.00000000000000, 0.000000000000000, 0.000000000000000 ) );
#425 = DIRECTION( '', ( 0.000000000000000, 1.00000000000000, 0.000000000000000 ) );
#426 = DIRECTION( '', ( -1.00000000000000, 5.93136098833160E-017, 0.000000000000000 ) );
#427 = DIRECTION( '', ( 0.000000000000000, -1.00000000000000, 0.000000000000000 ) );
#428 = CARTESIAN_POINT( '', ( -373.856250000000, -19.0500000000000, 1.90500000000000 ) );
#429 = DIRECTION( '', ( 0.000000000000000, 0.000000000000000, 1.00000000000000 ) );
#430 = DIRECTION( '', ( 1.00000000000000, 0.000000000000000, 0.000000000000000 ) );
#431 = DIRECTION( '', ( 1.00000000000000, 5.93136098833160E-017, 0.000000000000000 ) );
#432 = DIRECTION( '', ( 0.000000000000000, 0.000000000000000, -1.00000000000000 ) );
#433 = DIRECTION( '', ( 0.000000000000000, 0.000000000000000, -1.00000000000000 ) );
#434 = CARTESIAN_POINT( '', ( 354.806250000000, 12.7000000000000, 0.000000000000000 ) );
#435 = DIRECTION( '', ( 0.000000000000000, 0.000000000000000, 1.00000000000000 ) );
#436 = DIRECTION( '', ( 1.00000000000000, 0.000000000000000, 0.000000000000000 ) );
#437 = CARTESIAN_POINT( '', ( 0.000000000000000, 12.7000000000000, 0.000000000000000 ) );
#438 = DIRECTION( '', ( 0.000000000000000, 0.000000000000000, 1.00000000000000 ) );
#439 = DIRECTION( '', ( 1.00000000000000, 0.000000000000000, 0.000000000000000 ) );
#440 = CARTESIAN_POINT( '', ( -354.806250000000, 12.7000000000000, 0.000000000000000 ) );
#441 = DIRECTION( '', ( 0.000000000000000, 0.000000000000000, 1.00000000000000 ) );
#442 = DIRECTION( '', ( 1.00000000000000, 0.000000000000000, 0.000000000000000 ) );
#443 = DIRECTION( '', ( 0.000000000000000, 1.00000000000000, 0.000000000000000 ) );
#444 = CARTESIAN_POINT( '', ( 373.856250000000, -19.0500000000000, 0.000000000000000 ) );
#445 = DIRECTION( '', ( 0.000000000000000, 0.000000000000000, 1.00000000000000 ) );
#446 = DIRECTION( '', ( 1.00000000000000, 0.000000000000000, 0.000000000000000 ) );
#447 = CARTESIAN_POINT( '', ( -373.856250000000, -19.0500000000000, 0.000000000000000 ) );
#448 = DIRECTION( '', ( 0.000000000000000, 0.000000000000000, 1.00000000000000 ) );
#449 = DIRECTION( '', ( 1.00000000000000, 0.000000000000000, 0.000000000000000 ) );
#450 = DIRECTION( '', ( 0.000000000000000, -1.00000000000000, 0.000000000000000 ) );
#451 = DIRECTION( '', ( -1.00000000000000, 5.93136098833160E-017, 0.000000000000000 ) );
#452 = DIRECTION( '', ( 0.000000000000000, 0.000000000000000, -1.00000000000000 ) );
#453 = DIRECTION( '', ( 0.000000000000000, 0.000000000000000, -1.00000000000000 ) );
#454 = DIRECTION( '', ( 0.000000000000000, 0.000000000000000, -1.00000000000000 ) );
#455 = DIRECTION( '', ( 0.000000000000000, 0.000000000000000, -1.00000000000000 ) );
ENDSEC;
END-ISO-10303-21;
