ISO-10303-21;
HEADER;
FILE_DESCRIPTION( ( 'Unknown' ), '1' );
FILE_NAME( 'T:/STDBEL/ADSR/3D/ADSR24/ADSR24.stp', 'Unknown', ( 'Unknown' ), ( 'Unknown' ), 'PSStep 16.0.42', 'Unknown', '  ' );
FILE_SCHEMA( ( 'AUTOMOTIVE_DESIGN { 1 0 10303 214 1 1 1 1 }' ) );
ENDSEC;
DATA;
#1 = MECHANICAL_DESIGN_GEOMETRIC_PRESENTATION_REPRESENTATION( ' ', ( #10, #11, #12, #13, #14, #15, #16, #17, #18, #19 ), #6 );
#2 = PRODUCT_DEFINITION_CONTEXT( '', #20, 'design' );
#3 = APPLICATION_PROTOCOL_DEFINITION( 'international standard', 'automotive_design', 2001, #20 );
#4 = PRODUCT_CATEGORY_RELATIONSHIP( 'NONE', 'NONE', #21, #22 );
#5 = SHAPE_DEFINITION_REPRESENTATION( #23, #24 );
#6 =  ( GEOMETRIC_REPRESENTATION_CONTEXT( 3 )GLOBAL_UNCERTAINTY_ASSIGNED_CONTEXT( ( #27 ) )GLOBAL_UNIT_ASSIGNED_CONTEXT( ( #29, #30, #31 ) )REPRESENTATION_CONTEXT( 'NONE', 'WORKSPACE' ) );
#10 = STYLED_ITEM( '', ( #33 ), #34 );
#11 = STYLED_ITEM( '', ( #35 ), #36 );
#12 = STYLED_ITEM( '', ( #37 ), #38 );
#13 = STYLED_ITEM( '', ( #39 ), #40 );
#14 = STYLED_ITEM( '', ( #41 ), #42 );
#15 = STYLED_ITEM( '', ( #43 ), #44 );
#16 = STYLED_ITEM( '', ( #45 ), #46 );
#17 = STYLED_ITEM( '', ( #47 ), #48 );
#18 = STYLED_ITEM( '', ( #49 ), #50 );
#19 = STYLED_ITEM( '', ( #51 ), #52 );
#20 = APPLICATION_CONTEXT( 'core data for automotive mechanical design processes' );
#21 = PRODUCT_CATEGORY( 'part', 'NONE' );
#22 = PRODUCT_RELATED_PRODUCT_CATEGORY( 'detail', ' ', ( #53 ) );
#23 = PRODUCT_DEFINITION_SHAPE( 'NONE', 'NONE', #54 );
#24 = ADVANCED_BREP_SHAPE_REPRESENTATION( '1', ( #55, #56 ), #6 );
#27 = UNCERTAINTY_MEASURE_WITH_UNIT( LENGTH_MEASURE( 0.00100000000000000 ), #29, '', '' );
#29 =  ( CONVERSION_BASED_UNIT( 'MILLIMETRE', #59 )LENGTH_UNIT(  )NAMED_UNIT( #62 ) );
#30 =  ( NAMED_UNIT( #64 )PLANE_ANGLE_UNIT(  )SI_UNIT( $, .RADIAN. ) );
#31 =  ( NAMED_UNIT( #64 )SI_UNIT( $, .STERADIAN. )SOLID_ANGLE_UNIT(  ) );
#33 = PRESENTATION_STYLE_ASSIGNMENT( ( #70 ) );
#34 = ADVANCED_FACE( '', ( #71, #72 ), #73, .F. );
#35 = PRESENTATION_STYLE_ASSIGNMENT( ( #74 ) );
#36 = ADVANCED_FACE( '', ( #75 ), #76, .T. );
#37 = PRESENTATION_STYLE_ASSIGNMENT( ( #77 ) );
#38 = ADVANCED_FACE( '', ( #78 ), #79, .T. );
#39 = PRESENTATION_STYLE_ASSIGNMENT( ( #80 ) );
#40 = ADVANCED_FACE( '', ( #81 ), #82, .F. );
#41 = PRESENTATION_STYLE_ASSIGNMENT( ( #83 ) );
#42 = ADVANCED_FACE( '', ( #84 ), #85, .F. );
#43 = PRESENTATION_STYLE_ASSIGNMENT( ( #86 ) );
#44 = ADVANCED_FACE( '', ( #87, #88, #89 ), #90, .F. );
#45 = PRESENTATION_STYLE_ASSIGNMENT( ( #91 ) );
#46 = ADVANCED_FACE( '', ( #92 ), #93, .F. );
#47 = PRESENTATION_STYLE_ASSIGNMENT( ( #94 ) );
#48 = ADVANCED_FACE( '', ( #95 ), #96, .F. );
#49 = PRESENTATION_STYLE_ASSIGNMENT( ( #97 ) );
#50 = ADVANCED_FACE( '', ( #98, #99 ), #100, .F. );
#51 = PRESENTATION_STYLE_ASSIGNMENT( ( #101 ) );
#52 = ADVANCED_FACE( '', ( #102, #103, #104 ), #105, .T. );
#53 = PRODUCT( '1', '1', 'PART-1-DESC', ( #106 ) );
#54 = PRODUCT_DEFINITION( 'NONE', 'NONE', #107, #2 );
#55 = MANIFOLD_SOLID_BREP( '1', #108 );
#56 = AXIS2_PLACEMENT_3D( '', #109, #110, #111 );
#59 = LENGTH_MEASURE_WITH_UNIT( LENGTH_MEASURE( 1.00000000000000 ), #112 );
#62 = DIMENSIONAL_EXPONENTS( 1.00000000000000, 0.000000000000000, 0.000000000000000, 0.000000000000000, 0.000000000000000, 0.000000000000000, 0.000000000000000 );
#64 = DIMENSIONAL_EXPONENTS( 0.000000000000000, 0.000000000000000, 0.000000000000000, 0.000000000000000, 0.000000000000000, 0.000000000000000, 0.000000000000000 );
#70 = SURFACE_STYLE_USAGE( .BOTH., #113 );
#71 = FACE_OUTER_BOUND( '', #114, .T. );
#72 = FACE_OUTER_BOUND( '', #115, .T. );
#73 = CYLINDRICAL_SURFACE( '', #116, 2.55270000000000 );
#74 = SURFACE_STYLE_USAGE( .BOTH., #117 );
#75 = FACE_OUTER_BOUND( '', #118, .T. );
#76 = CYLINDRICAL_SURFACE( '', #119, 6.35000000000000 );
#77 = SURFACE_STYLE_USAGE( .BOTH., #120 );
#78 = FACE_OUTER_BOUND( '', #121, .T. );
#79 = CYLINDRICAL_SURFACE( '', #122, 6.35000000000000 );
#80 = SURFACE_STYLE_USAGE( .BOTH., #123 );
#81 = FACE_OUTER_BOUND( '', #124, .T. );
#82 = PLANE( '', #125 );
#83 = SURFACE_STYLE_USAGE( .BOTH., #126 );
#84 = FACE_OUTER_BOUND( '', #127, .T. );
#85 = PLANE( '', #128 );
#86 = SURFACE_STYLE_USAGE( .BOTH., #129 );
#87 = FACE_BOUND( '', #130, .T. );
#88 = FACE_BOUND( '', #131, .T. );
#89 = FACE_OUTER_BOUND( '', #132, .T. );
#90 = PLANE( '', #133 );
#91 = SURFACE_STYLE_USAGE( .BOTH., #134 );
#92 = FACE_OUTER_BOUND( '', #135, .T. );
#93 = PLANE( '', #136 );
#94 = SURFACE_STYLE_USAGE( .BOTH., #137 );
#95 = FACE_OUTER_BOUND( '', #138, .T. );
#96 = PLANE( '', #139 );
#97 = SURFACE_STYLE_USAGE( .BOTH., #140 );
#98 = FACE_OUTER_BOUND( '', #141, .T. );
#99 = FACE_OUTER_BOUND( '', #142, .T. );
#100 = CYLINDRICAL_SURFACE( '', #143, 2.55270000000000 );
#101 = SURFACE_STYLE_USAGE( .BOTH., #144 );
#102 = FACE_BOUND( '', #145, .T. );
#103 = FACE_BOUND( '', #146, .T. );
#104 = FACE_OUTER_BOUND( '', #147, .T. );
#105 = PLANE( '', #148 );
#106 = PRODUCT_CONTEXT( '', #20, 'mechanical' );
#107 = PRODUCT_DEFINITION_FORMATION_WITH_SPECIFIED_SOURCE( ' ', 'NONE', #53, .NOT_KNOWN. );
#108 = CLOSED_SHELL( '', ( #40, #46, #42, #36, #38, #44, #52, #48, #34, #50 ) );
#109 = CARTESIAN_POINT( '', ( 0.000000000000000, 0.000000000000000, 0.000000000000000 ) );
#110 = DIRECTION( '', ( 0.000000000000000, 0.000000000000000, 1.00000000000000 ) );
#111 = DIRECTION( '', ( 1.00000000000000, 0.000000000000000, 0.000000000000000 ) );
#112 =  ( LENGTH_UNIT(  )NAMED_UNIT( #62 )SI_UNIT( .MILLI., .METRE. ) );
#113 = SURFACE_SIDE_STYLE( '', ( #150 ) );
#114 = EDGE_LOOP( '', ( #151 ) );
#115 = EDGE_LOOP( '', ( #152 ) );
#116 = AXIS2_PLACEMENT_3D( '', #153, #154, #155 );
#117 = SURFACE_SIDE_STYLE( '', ( #156 ) );
#118 = EDGE_LOOP( '', ( #157, #158, #159, #160 ) );
#119 = AXIS2_PLACEMENT_3D( '', #161, #162, #163 );
#120 = SURFACE_SIDE_STYLE( '', ( #164 ) );
#121 = EDGE_LOOP( '', ( #165, #166, #167, #168 ) );
#122 = AXIS2_PLACEMENT_3D( '', #169, #170, #171 );
#123 = SURFACE_SIDE_STYLE( '', ( #172 ) );
#124 = EDGE_LOOP( '', ( #173, #174, #175, #176 ) );
#125 = AXIS2_PLACEMENT_3D( '', #177, #178, #179 );
#126 = SURFACE_SIDE_STYLE( '', ( #180 ) );
#127 = EDGE_LOOP( '', ( #181, #182, #183, #184 ) );
#128 = AXIS2_PLACEMENT_3D( '', #185, #186, #187 );
#129 = SURFACE_SIDE_STYLE( '', ( #188 ) );
#130 = EDGE_LOOP( '', ( #189 ) );
#131 = EDGE_LOOP( '', ( #190 ) );
#132 = EDGE_LOOP( '', ( #191, #192, #193, #194, #195, #196 ) );
#133 = AXIS2_PLACEMENT_3D( '', #197, #198, #199 );
#134 = SURFACE_SIDE_STYLE( '', ( #200 ) );
#135 = EDGE_LOOP( '', ( #201, #202, #203, #204 ) );
#136 = AXIS2_PLACEMENT_3D( '', #205, #206, #207 );
#137 = SURFACE_SIDE_STYLE( '', ( #208 ) );
#138 = EDGE_LOOP( '', ( #209, #210, #211, #212 ) );
#139 = AXIS2_PLACEMENT_3D( '', #213, #214, #215 );
#140 = SURFACE_SIDE_STYLE( '', ( #216 ) );
#141 = EDGE_LOOP( '', ( #217 ) );
#142 = EDGE_LOOP( '', ( #218 ) );
#143 = AXIS2_PLACEMENT_3D( '', #219, #220, #221 );
#144 = SURFACE_SIDE_STYLE( '', ( #222 ) );
#145 = EDGE_LOOP( '', ( #223 ) );
#146 = EDGE_LOOP( '', ( #224 ) );
#147 = EDGE_LOOP( '', ( #225, #226, #227, #228, #229, #230 ) );
#148 = AXIS2_PLACEMENT_3D( '', #231, #232, #233 );
#150 = SURFACE_STYLE_FILL_AREA( #234 );
#151 = ORIENTED_EDGE( '', *, *, #235, .T. );
#152 = ORIENTED_EDGE( '', *, *, #236, .F. );
#153 = CARTESIAN_POINT( '', ( 278.606250000000, 12.7000000000000, -608.228976419319 ) );
#154 = DIRECTION( '', ( -0.000000000000000, -0.000000000000000, -1.00000000000000 ) );
#155 = DIRECTION( '', ( 1.00000000000000, 0.000000000000000, 0.000000000000000 ) );
#156 = SURFACE_STYLE_FILL_AREA( #237 );
#157 = ORIENTED_EDGE( '', *, *, #238, .F. );
#158 = ORIENTED_EDGE( '', *, *, #239, .F. );
#159 = ORIENTED_EDGE( '', *, *, #240, .F. );
#160 = ORIENTED_EDGE( '', *, *, #241, .F. );
#161 = CARTESIAN_POINT( '', ( 297.656250000000, -19.0500000000000, 1.90500000000000 ) );
#162 = DIRECTION( '', ( -0.000000000000000, -0.000000000000000, 1.00000000000000 ) );
#163 = DIRECTION( '', ( -1.00000000000000, 0.000000000000000, 0.000000000000000 ) );
#164 = SURFACE_STYLE_FILL_AREA( #242 );
#165 = ORIENTED_EDGE( '', *, *, #243, .F. );
#166 = ORIENTED_EDGE( '', *, *, #244, .F. );
#167 = ORIENTED_EDGE( '', *, *, #245, .F. );
#168 = ORIENTED_EDGE( '', *, *, #246, .F. );
#169 = CARTESIAN_POINT( '', ( -297.656250000000, -19.0500000000000, 1.90500000000000 ) );
#170 = DIRECTION( '', ( -0.000000000000000, -0.000000000000000, 1.00000000000000 ) );
#171 = DIRECTION( '', ( -1.00000000000000, 0.000000000000000, 0.000000000000000 ) );
#172 = SURFACE_STYLE_FILL_AREA( #247 );
#173 = ORIENTED_EDGE( '', *, *, #248, .T. );
#174 = ORIENTED_EDGE( '', *, *, #239, .T. );
#175 = ORIENTED_EDGE( '', *, *, #249, .F. );
#176 = ORIENTED_EDGE( '', *, *, #246, .T. );
#177 = CARTESIAN_POINT( '', ( -304.006250000000, -25.4000000000000, 1.90500000000000 ) );
#178 = DIRECTION( '', ( -6.27683089928081E-017, 1.00000000000000, 0.000000000000000 ) );
#179 = DIRECTION( '', ( -1.00000000000000, -6.27683089928081E-017, 0.000000000000000 ) );
#180 = SURFACE_STYLE_FILL_AREA( #250 );
#181 = ORIENTED_EDGE( '', *, *, #251, .T. );
#182 = ORIENTED_EDGE( '', *, *, #244, .T. );
#183 = ORIENTED_EDGE( '', *, *, #252, .F. );
#184 = ORIENTED_EDGE( '', *, *, #253, .T. );
#185 = CARTESIAN_POINT( '', ( -304.006250000000, 25.4000000000000, 1.90500000000000 ) );
#186 = DIRECTION( '', ( 1.00000000000000, 0.000000000000000, 0.000000000000000 ) );
#187 = DIRECTION( '', ( 0.000000000000000, 0.000000000000000, -1.00000000000000 ) );
#188 = SURFACE_STYLE_FILL_AREA( #254 );
#189 = ORIENTED_EDGE( '', *, *, #255, .T. );
#190 = ORIENTED_EDGE( '', *, *, #236, .T. );
#191 = ORIENTED_EDGE( '', *, *, #256, .F. );
#192 = ORIENTED_EDGE( '', *, *, #240, .T. );
#193 = ORIENTED_EDGE( '', *, *, #248, .F. );
#194 = ORIENTED_EDGE( '', *, *, #245, .T. );
#195 = ORIENTED_EDGE( '', *, *, #251, .F. );
#196 = ORIENTED_EDGE( '', *, *, #257, .F. );
#197 = CARTESIAN_POINT( '', ( 0.000000000000000, 0.000000000000000, 0.000000000000000 ) );
#198 = DIRECTION( '', ( 0.000000000000000, 0.000000000000000, 1.00000000000000 ) );
#199 = DIRECTION( '', ( 1.00000000000000, 0.000000000000000, 0.000000000000000 ) );
#200 = SURFACE_STYLE_FILL_AREA( #258 );
#201 = ORIENTED_EDGE( '', *, *, #259, .F. );
#202 = ORIENTED_EDGE( '', *, *, #241, .T. );
#203 = ORIENTED_EDGE( '', *, *, #256, .T. );
#204 = ORIENTED_EDGE( '', *, *, #260, .F. );
#205 = CARTESIAN_POINT( '', ( 304.006250000000, -25.4000000000000, 1.90500000000000 ) );
#206 = DIRECTION( '', ( -1.00000000000000, 0.000000000000000, 0.000000000000000 ) );
#207 = DIRECTION( '', ( 0.000000000000000, 0.000000000000000, 1.00000000000000 ) );
#208 = SURFACE_STYLE_FILL_AREA( #261 );
#209 = ORIENTED_EDGE( '', *, *, #257, .T. );
#210 = ORIENTED_EDGE( '', *, *, #253, .F. );
#211 = ORIENTED_EDGE( '', *, *, #262, .F. );
#212 = ORIENTED_EDGE( '', *, *, #260, .T. );
#213 = CARTESIAN_POINT( '', ( 304.006250000000, 25.4000000000000, 1.90500000000000 ) );
#214 = DIRECTION( '', ( -6.27683089928081E-017, -1.00000000000000, 0.000000000000000 ) );
#215 = DIRECTION( '', ( 1.00000000000000, -6.27683089928081E-017, 0.000000000000000 ) );
#216 = SURFACE_STYLE_FILL_AREA( #263 );
#217 = ORIENTED_EDGE( '', *, *, #264, .T. );
#218 = ORIENTED_EDGE( '', *, *, #255, .F. );
#219 = CARTESIAN_POINT( '', ( -278.606250000000, 12.7000000000000, -608.228976419319 ) );
#220 = DIRECTION( '', ( -0.000000000000000, -0.000000000000000, -1.00000000000000 ) );
#221 = DIRECTION( '', ( 1.00000000000000, 0.000000000000000, 0.000000000000000 ) );
#222 = SURFACE_STYLE_FILL_AREA( #265 );
#223 = ORIENTED_EDGE( '', *, *, #264, .F. );
#224 = ORIENTED_EDGE( '', *, *, #235, .F. );
#225 = ORIENTED_EDGE( '', *, *, #249, .T. );
#226 = ORIENTED_EDGE( '', *, *, #238, .T. );
#227 = ORIENTED_EDGE( '', *, *, #259, .T. );
#228 = ORIENTED_EDGE( '', *, *, #262, .T. );
#229 = ORIENTED_EDGE( '', *, *, #252, .T. );
#230 = ORIENTED_EDGE( '', *, *, #243, .T. );
#231 = CARTESIAN_POINT( '', ( 0.000000000000000, 0.000000000000000, 1.90500000000000 ) );
#232 = DIRECTION( '', ( 0.000000000000000, 0.000000000000000, 1.00000000000000 ) );
#233 = DIRECTION( '', ( 1.00000000000000, 0.000000000000000, 0.000000000000000 ) );
#234 = FILL_AREA_STYLE( '', ( #266 ) );
#235 = EDGE_CURVE( '', #267, #267, #268, .T. );
#236 = EDGE_CURVE( '', #269, #269, #270, .T. );
#237 = FILL_AREA_STYLE( '', ( #271 ) );
#238 = EDGE_CURVE( '', #272, #273, #274, .T. );
#239 = EDGE_CURVE( '', #275, #272, #276, .F. );
#240 = EDGE_CURVE( '', #277, #275, #278, .F. );
#241 = EDGE_CURVE( '', #273, #277, #279, .T. );
#242 = FILL_AREA_STYLE( '', ( #280 ) );
#243 = EDGE_CURVE( '', #281, #282, #283, .T. );
#244 = EDGE_CURVE( '', #284, #281, #285, .F. );
#245 = EDGE_CURVE( '', #286, #284, #287, .F. );
#246 = EDGE_CURVE( '', #282, #286, #288, .T. );
#247 = FILL_AREA_STYLE( '', ( #289 ) );
#248 = EDGE_CURVE( '', #286, #275, #290, .T. );
#249 = EDGE_CURVE( '', #282, #272, #291, .T. );
#250 = FILL_AREA_STYLE( '', ( #292 ) );
#251 = EDGE_CURVE( '', #293, #284, #294, .T. );
#252 = EDGE_CURVE( '', #295, #281, #296, .T. );
#253 = EDGE_CURVE( '', #295, #293, #297, .T. );
#254 = FILL_AREA_STYLE( '', ( #298 ) );
#255 = EDGE_CURVE( '', #299, #299, #300, .T. );
#256 = EDGE_CURVE( '', #277, #301, #302, .T. );
#257 = EDGE_CURVE( '', #301, #293, #303, .T. );
#258 = FILL_AREA_STYLE( '', ( #304 ) );
#259 = EDGE_CURVE( '', #273, #305, #306, .T. );
#260 = EDGE_CURVE( '', #305, #301, #307, .T. );
#261 = FILL_AREA_STYLE( '', ( #308 ) );
#262 = EDGE_CURVE( '', #305, #295, #309, .T. );
#263 = FILL_AREA_STYLE( '', ( #310 ) );
#264 = EDGE_CURVE( '', #311, #311, #312, .T. );
#265 = FILL_AREA_STYLE( '', ( #313 ) );
#266 = FILL_AREA_STYLE_COLOUR( '', #314 );
#267 = VERTEX_POINT( '', #315 );
#268 = CIRCLE( '', #316, 2.55270000000000 );
#269 = VERTEX_POINT( '', #317 );
#270 = CIRCLE( '', #318, 2.55270000000000 );
#271 = FILL_AREA_STYLE_COLOUR( '', #319 );
#272 = VERTEX_POINT( '', #320 );
#273 = VERTEX_POINT( '', #321 );
#274 = CIRCLE( '', #322, 6.35000000000000 );
#275 = VERTEX_POINT( '', #323 );
#276 = LINE( '', #324, #325 );
#277 = VERTEX_POINT( '', #326 );
#278 = CIRCLE( '', #327, 6.35000000000000 );
#279 = LINE( '', #328, #329 );
#280 = FILL_AREA_STYLE_COLOUR( '', #330 );
#281 = VERTEX_POINT( '', #331 );
#282 = VERTEX_POINT( '', #332 );
#283 = CIRCLE( '', #333, 6.35000000000000 );
#284 = VERTEX_POINT( '', #334 );
#285 = LINE( '', #335, #336 );
#286 = VERTEX_POINT( '', #337 );
#287 = CIRCLE( '', #338, 6.35000000000000 );
#288 = LINE( '', #339, #340 );
#289 = FILL_AREA_STYLE_COLOUR( '', #341 );
#290 = LINE( '', #342, #343 );
#291 = LINE( '', #344, #345 );
#292 = FILL_AREA_STYLE_COLOUR( '', #346 );
#293 = VERTEX_POINT( '', #347 );
#294 = LINE( '', #348, #349 );
#295 = VERTEX_POINT( '', #350 );
#296 = LINE( '', #351, #352 );
#297 = LINE( '', #353, #354 );
#298 = FILL_AREA_STYLE_COLOUR( '', #355 );
#299 = VERTEX_POINT( '', #356 );
#300 = CIRCLE( '', #357, 2.55270000000000 );
#301 = VERTEX_POINT( '', #358 );
#302 = LINE( '', #359, #360 );
#303 = LINE( '', #361, #362 );
#304 = FILL_AREA_STYLE_COLOUR( '', #363 );
#305 = VERTEX_POINT( '', #364 );
#306 = LINE( '', #365, #366 );
#307 = LINE( '', #367, #368 );
#308 = FILL_AREA_STYLE_COLOUR( '', #369 );
#309 = LINE( '', #370, #371 );
#310 = FILL_AREA_STYLE_COLOUR( '', #372 );
#311 = VERTEX_POINT( '', #373 );
#312 = CIRCLE( '', #374, 2.55270000000000 );
#313 = FILL_AREA_STYLE_COLOUR( '', #375 );
#314 = COLOUR_RGB( '', 0.909803926944733, 0.898039221763611, 0.949019610881805 );
#315 = CARTESIAN_POINT( '', ( 281.158950000000, 12.7000000000000, 1.90500000000000 ) );
#316 = AXIS2_PLACEMENT_3D( '', #376, #377, #378 );
#317 = CARTESIAN_POINT( '', ( 281.158950000000, 12.7000000000000, 0.000000000000000 ) );
#318 = AXIS2_PLACEMENT_3D( '', #379, #380, #381 );
#319 = COLOUR_RGB( '', 0.909803926944733, 0.898039221763611, 0.949019610881805 );
#320 = CARTESIAN_POINT( '', ( 297.656250000000, -25.4000000000000, 1.90500000000000 ) );
#321 = CARTESIAN_POINT( '', ( 304.006250000000, -19.0500000000000, 1.90500000000000 ) );
#322 = AXIS2_PLACEMENT_3D( '', #382, #383, #384 );
#323 = CARTESIAN_POINT( '', ( 297.656250000000, -25.4000000000000, 0.000000000000000 ) );
#324 = CARTESIAN_POINT( '', ( 297.656250000000, -25.4000000000000, 1.90500000000000 ) );
#325 = VECTOR( '', #385, 1000.00000000000 );
#326 = CARTESIAN_POINT( '', ( 304.006250000000, -19.0500000000000, 0.000000000000000 ) );
#327 = AXIS2_PLACEMENT_3D( '', #386, #387, #388 );
#328 = CARTESIAN_POINT( '', ( 304.006250000000, -19.0500000000000, 1.90500000000000 ) );
#329 = VECTOR( '', #389, 1000.00000000000 );
#330 = COLOUR_RGB( '', 0.909803926944733, 0.898039221763611, 0.949019610881805 );
#331 = CARTESIAN_POINT( '', ( -304.006250000000, -19.0500000000000, 1.90500000000000 ) );
#332 = CARTESIAN_POINT( '', ( -297.656250000000, -25.4000000000000, 1.90500000000000 ) );
#333 = AXIS2_PLACEMENT_3D( '', #390, #391, #392 );
#334 = CARTESIAN_POINT( '', ( -304.006250000000, -19.0500000000000, 0.000000000000000 ) );
#335 = CARTESIAN_POINT( '', ( -304.006250000000, -19.0500000000000, 1.90500000000000 ) );
#336 = VECTOR( '', #393, 1000.00000000000 );
#337 = CARTESIAN_POINT( '', ( -297.656250000000, -25.4000000000000, 0.000000000000000 ) );
#338 = AXIS2_PLACEMENT_3D( '', #394, #395, #396 );
#339 = CARTESIAN_POINT( '', ( -297.656250000000, -25.4000000000000, 1.90500000000000 ) );
#340 = VECTOR( '', #397, 1000.00000000000 );
#341 = COLOUR_RGB( '', 0.909803926944733, 0.898039221763611, 0.949019610881805 );
#342 = CARTESIAN_POINT( '', ( -304.006250000000, -25.4000000000000, 0.000000000000000 ) );
#343 = VECTOR( '', #398, 1000.00000000000 );
#344 = CARTESIAN_POINT( '', ( -304.006250000000, -25.4000000000000, 1.90500000000000 ) );
#345 = VECTOR( '', #399, 1000.00000000000 );
#346 = COLOUR_RGB( '', 0.909803926944733, 0.898039221763611, 0.949019610881805 );
#347 = CARTESIAN_POINT( '', ( -304.006250000000, 25.4000000000000, 0.000000000000000 ) );
#348 = CARTESIAN_POINT( '', ( -304.006250000000, 25.4000000000000, 0.000000000000000 ) );
#349 = VECTOR( '', #400, 1000.00000000000 );
#350 = CARTESIAN_POINT( '', ( -304.006250000000, 25.4000000000000, 1.90500000000000 ) );
#351 = CARTESIAN_POINT( '', ( -304.006250000000, 25.4000000000000, 1.90500000000000 ) );
#352 = VECTOR( '', #401, 1000.00000000000 );
#353 = CARTESIAN_POINT( '', ( -304.006250000000, 25.4000000000000, 1.90500000000000 ) );
#354 = VECTOR( '', #402, 1000.00000000000 );
#355 = COLOUR_RGB( '', 0.909803926944733, 0.898039221763611, 0.949019610881805 );
#356 = CARTESIAN_POINT( '', ( -276.053550000000, 12.7000000000000, 0.000000000000000 ) );
#357 = AXIS2_PLACEMENT_3D( '', #403, #404, #405 );
#358 = CARTESIAN_POINT( '', ( 304.006250000000, 25.4000000000000, 0.000000000000000 ) );
#359 = CARTESIAN_POINT( '', ( 304.006250000000, -25.4000000000000, 0.000000000000000 ) );
#360 = VECTOR( '', #406, 1000.00000000000 );
#361 = CARTESIAN_POINT( '', ( 304.006250000000, 25.4000000000000, 0.000000000000000 ) );
#362 = VECTOR( '', #407, 1000.00000000000 );
#363 = COLOUR_RGB( '', 0.909803926944733, 0.898039221763611, 0.949019610881805 );
#364 = CARTESIAN_POINT( '', ( 304.006250000000, 25.4000000000000, 1.90500000000000 ) );
#365 = CARTESIAN_POINT( '', ( 304.006250000000, -25.4000000000000, 1.90500000000000 ) );
#366 = VECTOR( '', #408, 1000.00000000000 );
#367 = CARTESIAN_POINT( '', ( 304.006250000000, 25.4000000000000, 1.90500000000000 ) );
#368 = VECTOR( '', #409, 1000.00000000000 );
#369 = COLOUR_RGB( '', 0.909803926944733, 0.898039221763611, 0.949019610881805 );
#370 = CARTESIAN_POINT( '', ( 304.006250000000, 25.4000000000000, 1.90500000000000 ) );
#371 = VECTOR( '', #410, 1000.00000000000 );
#372 = COLOUR_RGB( '', 0.909803926944733, 0.898039221763611, 0.949019610881805 );
#373 = CARTESIAN_POINT( '', ( -276.053550000000, 12.7000000000000, 1.90500000000000 ) );
#374 = AXIS2_PLACEMENT_3D( '', #411, #412, #413 );
#375 = COLOUR_RGB( '', 0.909803926944733, 0.898039221763611, 0.949019610881805 );
#376 = CARTESIAN_POINT( '', ( 278.606250000000, 12.7000000000000, 1.90500000000000 ) );
#377 = DIRECTION( '', ( 0.000000000000000, 0.000000000000000, 1.00000000000000 ) );
#378 = DIRECTION( '', ( 1.00000000000000, 0.000000000000000, 0.000000000000000 ) );
#379 = CARTESIAN_POINT( '', ( 278.606250000000, 12.7000000000000, 0.000000000000000 ) );
#380 = DIRECTION( '', ( 0.000000000000000, 0.000000000000000, 1.00000000000000 ) );
#381 = DIRECTION( '', ( 1.00000000000000, 0.000000000000000, 0.000000000000000 ) );
#382 = CARTESIAN_POINT( '', ( 297.656250000000, -19.0500000000000, 1.90500000000000 ) );
#383 = DIRECTION( '', ( 0.000000000000000, 0.000000000000000, 1.00000000000000 ) );
#384 = DIRECTION( '', ( 1.00000000000000, 0.000000000000000, 0.000000000000000 ) );
#385 = DIRECTION( '', ( 0.000000000000000, 0.000000000000000, -1.00000000000000 ) );
#386 = CARTESIAN_POINT( '', ( 297.656250000000, -19.0500000000000, 0.000000000000000 ) );
#387 = DIRECTION( '', ( 0.000000000000000, 0.000000000000000, 1.00000000000000 ) );
#388 = DIRECTION( '', ( 1.00000000000000, 0.000000000000000, 0.000000000000000 ) );
#389 = DIRECTION( '', ( 0.000000000000000, 0.000000000000000, -1.00000000000000 ) );
#390 = CARTESIAN_POINT( '', ( -297.656250000000, -19.0500000000000, 1.90500000000000 ) );
#391 = DIRECTION( '', ( 0.000000000000000, 0.000000000000000, 1.00000000000000 ) );
#392 = DIRECTION( '', ( 1.00000000000000, 0.000000000000000, 0.000000000000000 ) );
#393 = DIRECTION( '', ( 0.000000000000000, 0.000000000000000, -1.00000000000000 ) );
#394 = CARTESIAN_POINT( '', ( -297.656250000000, -19.0500000000000, 0.000000000000000 ) );
#395 = DIRECTION( '', ( 0.000000000000000, 0.000000000000000, 1.00000000000000 ) );
#396 = DIRECTION( '', ( 1.00000000000000, 0.000000000000000, 0.000000000000000 ) );
#397 = DIRECTION( '', ( 0.000000000000000, 0.000000000000000, -1.00000000000000 ) );
#398 = DIRECTION( '', ( 1.00000000000000, 6.27683089928081E-017, 0.000000000000000 ) );
#399 = DIRECTION( '', ( 1.00000000000000, 6.27683089928081E-017, 0.000000000000000 ) );
#400 = DIRECTION( '', ( 0.000000000000000, -1.00000000000000, 0.000000000000000 ) );
#401 = DIRECTION( '', ( 0.000000000000000, -1.00000000000000, 0.000000000000000 ) );
#402 = DIRECTION( '', ( 0.000000000000000, 0.000000000000000, -1.00000000000000 ) );
#403 = CARTESIAN_POINT( '', ( -278.606250000000, 12.7000000000000, 0.000000000000000 ) );
#404 = DIRECTION( '', ( 0.000000000000000, 0.000000000000000, 1.00000000000000 ) );
#405 = DIRECTION( '', ( 1.00000000000000, 0.000000000000000, 0.000000000000000 ) );
#406 = DIRECTION( '', ( 0.000000000000000, 1.00000000000000, 0.000000000000000 ) );
#407 = DIRECTION( '', ( -1.00000000000000, 6.27683089928081E-017, 0.000000000000000 ) );
#408 = DIRECTION( '', ( 0.000000000000000, 1.00000000000000, 0.000000000000000 ) );
#409 = DIRECTION( '', ( 0.000000000000000, 0.000000000000000, -1.00000000000000 ) );
#410 = DIRECTION( '', ( -1.00000000000000, 6.27683089928081E-017, 0.000000000000000 ) );
#411 = CARTESIAN_POINT( '', ( -278.606250000000, 12.7000000000000, 1.90500000000000 ) );
#412 = DIRECTION( '', ( 0.000000000000000, 0.000000000000000, 1.00000000000000 ) );
#413 = DIRECTION( '', ( 1.00000000000000, 0.000000000000000, 0.000000000000000 ) );
ENDSEC;
END-ISO-10303-21;
