ISO-10303-21;
HEADER;
FILE_DESCRIPTION( ( 'Unknown' ), '1' );
FILE_NAME( 'C:/STDBEL/ADSR/3D/ADSR20/ADSR20.stp', 'Unknown', ( 'Unknown' ), ( 'Unknown' ), 'PSStep 16.0.42', 'Unknown', '  ' );
FILE_SCHEMA( ( 'AUTOMOTIVE_DESIGN { 1 0 10303 214 1 1 1 1 }' ) );
ENDSEC;
DATA;
#1 = MECHANICAL_DESIGN_GEOMETRIC_PRESENTATION_REPRESENTATION( ' ', ( #10, #11, #12, #13, #14, #15, #16, #17, #18, #19 ), #6 );
#2 = PRODUCT_DEFINITION_CONTEXT( '', #20, 'design' );
#3 = APPLICATION_PROTOCOL_DEFINITION( 'international standard', 'automotive_design', 2001, #20 );
#4 = PRODUCT_CATEGORY_RELATIONSHIP( 'NONE', 'NONE', #21, #22 );
#5 = SHAPE_DEFINITION_REPRESENTATION( #23, #24 );
#6 =  ( GEOMETRIC_REPRESENTATION_CONTEXT( 3 )GLOBAL_UNCERTAINTY_ASSIGNED_CONTEXT( ( #27 ) )GLOBAL_UNIT_ASSIGNED_CONTEXT( ( #29, #30, #31 ) )REPRESENTATION_CONTEXT( 'NONE', 'WORKSPACE' ) );
#10 = STYLED_ITEM( '', ( #33 ), #34 );
#11 = STYLED_ITEM( '', ( #35 ), #36 );
#12 = STYLED_ITEM( '', ( #37 ), #38 );
#13 = STYLED_ITEM( '', ( #39 ), #40 );
#14 = STYLED_ITEM( '', ( #41 ), #42 );
#15 = STYLED_ITEM( '', ( #43 ), #44 );
#16 = STYLED_ITEM( '', ( #45 ), #46 );
#17 = STYLED_ITEM( '', ( #47 ), #48 );
#18 = STYLED_ITEM( '', ( #49 ), #50 );
#19 = STYLED_ITEM( '', ( #51 ), #52 );
#20 = APPLICATION_CONTEXT( 'core data for automotive mechanical design processes' );
#21 = PRODUCT_CATEGORY( 'part', 'NONE' );
#22 = PRODUCT_RELATED_PRODUCT_CATEGORY( 'detail', ' ', ( #53 ) );
#23 = PRODUCT_DEFINITION_SHAPE( 'NONE', 'NONE', #54 );
#24 = ADVANCED_BREP_SHAPE_REPRESENTATION( '1', ( #55, #56 ), #6 );
#27 = UNCERTAINTY_MEASURE_WITH_UNIT( LENGTH_MEASURE( 0.00100000000000000 ), #29, '', '' );
#29 =  ( CONVERSION_BASED_UNIT( 'MILLIMETRE', #59 )LENGTH_UNIT(  )NAMED_UNIT( #62 ) );
#30 =  ( NAMED_UNIT( #64 )PLANE_ANGLE_UNIT(  )SI_UNIT( $, .RADIAN. ) );
#31 =  ( NAMED_UNIT( #64 )SI_UNIT( $, .STERADIAN. )SOLID_ANGLE_UNIT(  ) );
#33 = PRESENTATION_STYLE_ASSIGNMENT( ( #70 ) );
#34 = ADVANCED_FACE( '', ( #71, #72, #73 ), #74, .F. );
#35 = PRESENTATION_STYLE_ASSIGNMENT( ( #75 ) );
#36 = ADVANCED_FACE( '', ( #76 ), #77, .T. );
#37 = PRESENTATION_STYLE_ASSIGNMENT( ( #78 ) );
#38 = ADVANCED_FACE( '', ( #79, #80, #81 ), #82, .T. );
#39 = PRESENTATION_STYLE_ASSIGNMENT( ( #83 ) );
#40 = ADVANCED_FACE( '', ( #84 ), #85, .F. );
#41 = PRESENTATION_STYLE_ASSIGNMENT( ( #86 ) );
#42 = ADVANCED_FACE( '', ( #87 ), #88, .F. );
#43 = PRESENTATION_STYLE_ASSIGNMENT( ( #89 ) );
#44 = ADVANCED_FACE( '', ( #90, #91 ), #92, .F. );
#45 = PRESENTATION_STYLE_ASSIGNMENT( ( #93 ) );
#46 = ADVANCED_FACE( '', ( #94 ), #95, .F. );
#47 = PRESENTATION_STYLE_ASSIGNMENT( ( #96 ) );
#48 = ADVANCED_FACE( '', ( #97 ), #98, .T. );
#49 = PRESENTATION_STYLE_ASSIGNMENT( ( #99 ) );
#50 = ADVANCED_FACE( '', ( #100 ), #101, .F. );
#51 = PRESENTATION_STYLE_ASSIGNMENT( ( #102 ) );
#52 = ADVANCED_FACE( '', ( #103, #104 ), #105, .F. );
#53 = PRODUCT( '1', '1', 'PART-1-DESC', ( #106 ) );
#54 = PRODUCT_DEFINITION( 'NONE', 'NONE', #107, #2 );
#55 = MANIFOLD_SOLID_BREP( '1', #108 );
#56 = AXIS2_PLACEMENT_3D( '', #109, #110, #111 );
#59 = LENGTH_MEASURE_WITH_UNIT( LENGTH_MEASURE( 1.00000000000000 ), #112 );
#62 = DIMENSIONAL_EXPONENTS( 1.00000000000000, 0.000000000000000, 0.000000000000000, 0.000000000000000, 0.000000000000000, 0.000000000000000, 0.000000000000000 );
#64 = DIMENSIONAL_EXPONENTS( 0.000000000000000, 0.000000000000000, 0.000000000000000, 0.000000000000000, 0.000000000000000, 0.000000000000000, 0.000000000000000 );
#70 = SURFACE_STYLE_USAGE( .BOTH., #113 );
#71 = FACE_BOUND( '', #114, .T. );
#72 = FACE_BOUND( '', #115, .T. );
#73 = FACE_OUTER_BOUND( '', #116, .T. );
#74 = PLANE( '', #117 );
#75 = SURFACE_STYLE_USAGE( .BOTH., #118 );
#76 = FACE_OUTER_BOUND( '', #119, .T. );
#77 = CYLINDRICAL_SURFACE( '', #120, 6.35000000000000 );
#78 = SURFACE_STYLE_USAGE( .BOTH., #121 );
#79 = FACE_BOUND( '', #122, .T. );
#80 = FACE_BOUND( '', #123, .T. );
#81 = FACE_OUTER_BOUND( '', #124, .T. );
#82 = PLANE( '', #125 );
#83 = SURFACE_STYLE_USAGE( .BOTH., #126 );
#84 = FACE_OUTER_BOUND( '', #127, .T. );
#85 = PLANE( '', #128 );
#86 = SURFACE_STYLE_USAGE( .BOTH., #129 );
#87 = FACE_OUTER_BOUND( '', #130, .T. );
#88 = PLANE( '', #131 );
#89 = SURFACE_STYLE_USAGE( .BOTH., #132 );
#90 = FACE_OUTER_BOUND( '', #133, .T. );
#91 = FACE_OUTER_BOUND( '', #134, .T. );
#92 = CYLINDRICAL_SURFACE( '', #135, 2.55270000000000 );
#93 = SURFACE_STYLE_USAGE( .BOTH., #136 );
#94 = FACE_OUTER_BOUND( '', #137, .T. );
#95 = PLANE( '', #138 );
#96 = SURFACE_STYLE_USAGE( .BOTH., #139 );
#97 = FACE_OUTER_BOUND( '', #140, .T. );
#98 = CYLINDRICAL_SURFACE( '', #141, 6.35000000000000 );
#99 = SURFACE_STYLE_USAGE( .BOTH., #142 );
#100 = FACE_OUTER_BOUND( '', #143, .T. );
#101 = PLANE( '', #144 );
#102 = SURFACE_STYLE_USAGE( .BOTH., #145 );
#103 = FACE_OUTER_BOUND( '', #146, .T. );
#104 = FACE_OUTER_BOUND( '', #147, .T. );
#105 = CYLINDRICAL_SURFACE( '', #148, 2.55270000000000 );
#106 = PRODUCT_CONTEXT( '', #20, 'mechanical' );
#107 = PRODUCT_DEFINITION_FORMATION_WITH_SPECIFIED_SOURCE( ' ', 'NONE', #53, .NOT_KNOWN. );
#108 = CLOSED_SHELL( '', ( #50, #42, #46, #48, #36, #34, #38, #40, #52, #44 ) );
#109 = CARTESIAN_POINT( '', ( 0.000000000000000, 0.000000000000000, 0.000000000000000 ) );
#110 = DIRECTION( '', ( 0.000000000000000, 0.000000000000000, 1.00000000000000 ) );
#111 = DIRECTION( '', ( 1.00000000000000, 0.000000000000000, 0.000000000000000 ) );
#112 =  ( LENGTH_UNIT(  )NAMED_UNIT( #62 )SI_UNIT( .MILLI., .METRE. ) );
#113 = SURFACE_SIDE_STYLE( '', ( #150 ) );
#114 = EDGE_LOOP( '', ( #151 ) );
#115 = EDGE_LOOP( '', ( #152 ) );
#116 = EDGE_LOOP( '', ( #153, #154, #155, #156, #157, #158 ) );
#117 = AXIS2_PLACEMENT_3D( '', #159, #160, #161 );
#118 = SURFACE_SIDE_STYLE( '', ( #162 ) );
#119 = EDGE_LOOP( '', ( #163, #164, #165, #166 ) );
#120 = AXIS2_PLACEMENT_3D( '', #167, #168, #169 );
#121 = SURFACE_SIDE_STYLE( '', ( #170 ) );
#122 = EDGE_LOOP( '', ( #171 ) );
#123 = EDGE_LOOP( '', ( #172 ) );
#124 = EDGE_LOOP( '', ( #173, #174, #175, #176, #177, #178 ) );
#125 = AXIS2_PLACEMENT_3D( '', #179, #180, #181 );
#126 = SURFACE_SIDE_STYLE( '', ( #182 ) );
#127 = EDGE_LOOP( '', ( #183, #184, #185, #186 ) );
#128 = AXIS2_PLACEMENT_3D( '', #187, #188, #189 );
#129 = SURFACE_SIDE_STYLE( '', ( #190 ) );
#130 = EDGE_LOOP( '', ( #191, #192, #193, #194 ) );
#131 = AXIS2_PLACEMENT_3D( '', #195, #196, #197 );
#132 = SURFACE_SIDE_STYLE( '', ( #198 ) );
#133 = EDGE_LOOP( '', ( #199 ) );
#134 = EDGE_LOOP( '', ( #200 ) );
#135 = AXIS2_PLACEMENT_3D( '', #201, #202, #203 );
#136 = SURFACE_SIDE_STYLE( '', ( #204 ) );
#137 = EDGE_LOOP( '', ( #205, #206, #207, #208 ) );
#138 = AXIS2_PLACEMENT_3D( '', #209, #210, #211 );
#139 = SURFACE_SIDE_STYLE( '', ( #212 ) );
#140 = EDGE_LOOP( '', ( #213, #214, #215, #216 ) );
#141 = AXIS2_PLACEMENT_3D( '', #217, #218, #219 );
#142 = SURFACE_SIDE_STYLE( '', ( #220 ) );
#143 = EDGE_LOOP( '', ( #221, #222, #223, #224 ) );
#144 = AXIS2_PLACEMENT_3D( '', #225, #226, #227 );
#145 = SURFACE_SIDE_STYLE( '', ( #228 ) );
#146 = EDGE_LOOP( '', ( #229 ) );
#147 = EDGE_LOOP( '', ( #230 ) );
#148 = AXIS2_PLACEMENT_3D( '', #231, #232, #233 );
#150 = SURFACE_STYLE_FILL_AREA( #234 );
#151 = ORIENTED_EDGE( '', *, *, #235, .F. );
#152 = ORIENTED_EDGE( '', *, *, #236, .F. );
#153 = ORIENTED_EDGE( '', *, *, #237, .F. );
#154 = ORIENTED_EDGE( '', *, *, #238, .T. );
#155 = ORIENTED_EDGE( '', *, *, #239, .F. );
#156 = ORIENTED_EDGE( '', *, *, #240, .T. );
#157 = ORIENTED_EDGE( '', *, *, #241, .F. );
#158 = ORIENTED_EDGE( '', *, *, #242, .F. );
#159 = CARTESIAN_POINT( '', ( 0.000000000000000, 0.000000000000000, 0.000000000000000 ) );
#160 = DIRECTION( '', ( 0.000000000000000, 0.000000000000000, 1.00000000000000 ) );
#161 = DIRECTION( '', ( 1.00000000000000, 0.000000000000000, 0.000000000000000 ) );
#162 = SURFACE_STYLE_FILL_AREA( #243 );
#163 = ORIENTED_EDGE( '', *, *, #244, .F. );
#164 = ORIENTED_EDGE( '', *, *, #245, .F. );
#165 = ORIENTED_EDGE( '', *, *, #240, .F. );
#166 = ORIENTED_EDGE( '', *, *, #246, .F. );
#167 = CARTESIAN_POINT( '', ( -246.856250000000, -19.0500000000000, 1.90500000000000 ) );
#168 = DIRECTION( '', ( -0.000000000000000, -0.000000000000000, 1.00000000000000 ) );
#169 = DIRECTION( '', ( -1.00000000000000, 0.000000000000000, 0.000000000000000 ) );
#170 = SURFACE_STYLE_FILL_AREA( #247 );
#171 = ORIENTED_EDGE( '', *, *, #248, .T. );
#172 = ORIENTED_EDGE( '', *, *, #249, .T. );
#173 = ORIENTED_EDGE( '', *, *, #250, .T. );
#174 = ORIENTED_EDGE( '', *, *, #251, .T. );
#175 = ORIENTED_EDGE( '', *, *, #252, .T. );
#176 = ORIENTED_EDGE( '', *, *, #253, .T. );
#177 = ORIENTED_EDGE( '', *, *, #254, .T. );
#178 = ORIENTED_EDGE( '', *, *, #244, .T. );
#179 = CARTESIAN_POINT( '', ( 0.000000000000000, 0.000000000000000, 1.90500000000000 ) );
#180 = DIRECTION( '', ( 0.000000000000000, 0.000000000000000, 1.00000000000000 ) );
#181 = DIRECTION( '', ( 1.00000000000000, 0.000000000000000, 0.000000000000000 ) );
#182 = SURFACE_STYLE_FILL_AREA( #255 );
#183 = ORIENTED_EDGE( '', *, *, #242, .T. );
#184 = ORIENTED_EDGE( '', *, *, #256, .F. );
#185 = ORIENTED_EDGE( '', *, *, #253, .F. );
#186 = ORIENTED_EDGE( '', *, *, #257, .T. );
#187 = CARTESIAN_POINT( '', ( 253.206250000000, 25.4000000000000, 1.90500000000000 ) );
#188 = DIRECTION( '', ( -6.16592650607608E-017, -1.00000000000000, 0.000000000000000 ) );
#189 = DIRECTION( '', ( 1.00000000000000, -6.16592650607608E-017, 0.000000000000000 ) );
#190 = SURFACE_STYLE_FILL_AREA( #258 );
#191 = ORIENTED_EDGE( '', *, *, #252, .F. );
#192 = ORIENTED_EDGE( '', *, *, #259, .T. );
#193 = ORIENTED_EDGE( '', *, *, #237, .T. );
#194 = ORIENTED_EDGE( '', *, *, #257, .F. );
#195 = CARTESIAN_POINT( '', ( 253.206250000000, -25.4000000000000, 1.90500000000000 ) );
#196 = DIRECTION( '', ( -1.00000000000000, 0.000000000000000, 0.000000000000000 ) );
#197 = DIRECTION( '', ( 0.000000000000000, 0.000000000000000, 1.00000000000000 ) );
#198 = SURFACE_STYLE_FILL_AREA( #260 );
#199 = ORIENTED_EDGE( '', *, *, #248, .F. );
#200 = ORIENTED_EDGE( '', *, *, #235, .T. );
#201 = CARTESIAN_POINT( '', ( 227.806250000000, 12.7000000000000, -507.052649693223 ) );
#202 = DIRECTION( '', ( -0.000000000000000, -0.000000000000000, -1.00000000000000 ) );
#203 = DIRECTION( '', ( 1.00000000000000, 0.000000000000000, 0.000000000000000 ) );
#204 = SURFACE_STYLE_FILL_AREA( #261 );
#205 = ORIENTED_EDGE( '', *, *, #241, .T. );
#206 = ORIENTED_EDGE( '', *, *, #245, .T. );
#207 = ORIENTED_EDGE( '', *, *, #254, .F. );
#208 = ORIENTED_EDGE( '', *, *, #256, .T. );
#209 = CARTESIAN_POINT( '', ( -253.206250000000, 25.4000000000000, 1.90500000000000 ) );
#210 = DIRECTION( '', ( 1.00000000000000, 0.000000000000000, 0.000000000000000 ) );
#211 = DIRECTION( '', ( 0.000000000000000, 0.000000000000000, -1.00000000000000 ) );
#212 = SURFACE_STYLE_FILL_AREA( #262 );
#213 = ORIENTED_EDGE( '', *, *, #251, .F. );
#214 = ORIENTED_EDGE( '', *, *, #263, .F. );
#215 = ORIENTED_EDGE( '', *, *, #238, .F. );
#216 = ORIENTED_EDGE( '', *, *, #259, .F. );
#217 = CARTESIAN_POINT( '', ( 246.856250000000, -19.0500000000000, 1.90500000000000 ) );
#218 = DIRECTION( '', ( -0.000000000000000, -0.000000000000000, 1.00000000000000 ) );
#219 = DIRECTION( '', ( -1.00000000000000, 0.000000000000000, 0.000000000000000 ) );
#220 = SURFACE_STYLE_FILL_AREA( #264 );
#221 = ORIENTED_EDGE( '', *, *, #239, .T. );
#222 = ORIENTED_EDGE( '', *, *, #263, .T. );
#223 = ORIENTED_EDGE( '', *, *, #250, .F. );
#224 = ORIENTED_EDGE( '', *, *, #246, .T. );
#225 = CARTESIAN_POINT( '', ( -253.206250000000, -25.4000000000000, 1.90500000000000 ) );
#226 = DIRECTION( '', ( -6.16592650607608E-017, 1.00000000000000, 0.000000000000000 ) );
#227 = DIRECTION( '', ( -1.00000000000000, -6.16592650607608E-017, 0.000000000000000 ) );
#228 = SURFACE_STYLE_FILL_AREA( #265 );
#229 = ORIENTED_EDGE( '', *, *, #249, .F. );
#230 = ORIENTED_EDGE( '', *, *, #236, .T. );
#231 = CARTESIAN_POINT( '', ( -227.806250000000, 12.7000000000000, -507.052649693223 ) );
#232 = DIRECTION( '', ( -0.000000000000000, -0.000000000000000, -1.00000000000000 ) );
#233 = DIRECTION( '', ( 1.00000000000000, 0.000000000000000, 0.000000000000000 ) );
#234 = FILL_AREA_STYLE( '', ( #266 ) );
#235 = EDGE_CURVE( '', #267, #267, #268, .F. );
#236 = EDGE_CURVE( '', #269, #269, #270, .F. );
#237 = EDGE_CURVE( '', #271, #272, #273, .T. );
#238 = EDGE_CURVE( '', #271, #274, #275, .F. );
#239 = EDGE_CURVE( '', #276, #274, #277, .T. );
#240 = EDGE_CURVE( '', #276, #278, #279, .F. );
#241 = EDGE_CURVE( '', #280, #278, #281, .T. );
#242 = EDGE_CURVE( '', #272, #280, #282, .T. );
#243 = FILL_AREA_STYLE( '', ( #283 ) );
#244 = EDGE_CURVE( '', #284, #285, #286, .T. );
#245 = EDGE_CURVE( '', #278, #284, #287, .F. );
#246 = EDGE_CURVE( '', #285, #276, #288, .T. );
#247 = FILL_AREA_STYLE( '', ( #289 ) );
#248 = EDGE_CURVE( '', #290, #290, #291, .T. );
#249 = EDGE_CURVE( '', #292, #292, #293, .T. );
#250 = EDGE_CURVE( '', #285, #294, #295, .T. );
#251 = EDGE_CURVE( '', #294, #296, #297, .T. );
#252 = EDGE_CURVE( '', #296, #298, #299, .T. );
#253 = EDGE_CURVE( '', #298, #300, #301, .T. );
#254 = EDGE_CURVE( '', #300, #284, #302, .T. );
#255 = FILL_AREA_STYLE( '', ( #303 ) );
#256 = EDGE_CURVE( '', #300, #280, #304, .T. );
#257 = EDGE_CURVE( '', #298, #272, #305, .T. );
#258 = FILL_AREA_STYLE( '', ( #306 ) );
#259 = EDGE_CURVE( '', #296, #271, #307, .T. );
#260 = FILL_AREA_STYLE( '', ( #308 ) );
#261 = FILL_AREA_STYLE( '', ( #309 ) );
#262 = FILL_AREA_STYLE( '', ( #310 ) );
#263 = EDGE_CURVE( '', #274, #294, #311, .F. );
#264 = FILL_AREA_STYLE( '', ( #312 ) );
#265 = FILL_AREA_STYLE( '', ( #313 ) );
#266 = FILL_AREA_STYLE_COLOUR( '', #314 );
#267 = VERTEX_POINT( '', #315 );
#268 = CIRCLE( '', #316, 2.55270000000000 );
#269 = VERTEX_POINT( '', #317 );
#270 = CIRCLE( '', #318, 2.55270000000000 );
#271 = VERTEX_POINT( '', #319 );
#272 = VERTEX_POINT( '', #320 );
#273 = LINE( '', #321, #322 );
#274 = VERTEX_POINT( '', #323 );
#275 = CIRCLE( '', #324, 6.35000000000000 );
#276 = VERTEX_POINT( '', #325 );
#277 = LINE( '', #326, #327 );
#278 = VERTEX_POINT( '', #328 );
#279 = CIRCLE( '', #329, 6.35000000000000 );
#280 = VERTEX_POINT( '', #330 );
#281 = LINE( '', #331, #332 );
#282 = LINE( '', #333, #334 );
#283 = FILL_AREA_STYLE_COLOUR( '', #335 );
#284 = VERTEX_POINT( '', #336 );
#285 = VERTEX_POINT( '', #337 );
#286 = CIRCLE( '', #338, 6.35000000000000 );
#287 = LINE( '', #339, #340 );
#288 = LINE( '', #341, #342 );
#289 = FILL_AREA_STYLE_COLOUR( '', #343 );
#290 = VERTEX_POINT( '', #344 );
#291 = CIRCLE( '', #345, 2.55270000000000 );
#292 = VERTEX_POINT( '', #346 );
#293 = CIRCLE( '', #347, 2.55270000000000 );
#294 = VERTEX_POINT( '', #348 );
#295 = LINE( '', #349, #350 );
#296 = VERTEX_POINT( '', #351 );
#297 = CIRCLE( '', #352, 6.35000000000000 );
#298 = VERTEX_POINT( '', #353 );
#299 = LINE( '', #354, #355 );
#300 = VERTEX_POINT( '', #356 );
#301 = LINE( '', #357, #358 );
#302 = LINE( '', #359, #360 );
#303 = FILL_AREA_STYLE_COLOUR( '', #361 );
#304 = LINE( '', #362, #363 );
#305 = LINE( '', #364, #365 );
#306 = FILL_AREA_STYLE_COLOUR( '', #366 );
#307 = LINE( '', #367, #368 );
#308 = FILL_AREA_STYLE_COLOUR( '', #369 );
#309 = FILL_AREA_STYLE_COLOUR( '', #370 );
#310 = FILL_AREA_STYLE_COLOUR( '', #371 );
#311 = LINE( '', #372, #373 );
#312 = FILL_AREA_STYLE_COLOUR( '', #374 );
#313 = FILL_AREA_STYLE_COLOUR( '', #375 );
#314 = COLOUR_RGB( '', 0.909803926944733, 0.898039221763611, 0.949019610881805 );
#315 = CARTESIAN_POINT( '', ( 230.358950000000, 12.7000000000000, 0.000000000000000 ) );
#316 = AXIS2_PLACEMENT_3D( '', #376, #377, #378 );
#317 = CARTESIAN_POINT( '', ( -225.253550000000, 12.7000000000000, 0.000000000000000 ) );
#318 = AXIS2_PLACEMENT_3D( '', #379, #380, #381 );
#319 = CARTESIAN_POINT( '', ( 253.206250000000, -19.0500000000000, 0.000000000000000 ) );
#320 = CARTESIAN_POINT( '', ( 253.206250000000, 25.4000000000000, 0.000000000000000 ) );
#321 = CARTESIAN_POINT( '', ( 253.206250000000, -25.4000000000000, 0.000000000000000 ) );
#322 = VECTOR( '', #382, 1000.00000000000 );
#323 = CARTESIAN_POINT( '', ( 246.856250000000, -25.4000000000000, 0.000000000000000 ) );
#324 = AXIS2_PLACEMENT_3D( '', #383, #384, #385 );
#325 = CARTESIAN_POINT( '', ( -246.856250000000, -25.4000000000000, 0.000000000000000 ) );
#326 = CARTESIAN_POINT( '', ( -253.206250000000, -25.4000000000000, 0.000000000000000 ) );
#327 = VECTOR( '', #386, 1000.00000000000 );
#328 = CARTESIAN_POINT( '', ( -253.206250000000, -19.0500000000000, 0.000000000000000 ) );
#329 = AXIS2_PLACEMENT_3D( '', #387, #388, #389 );
#330 = CARTESIAN_POINT( '', ( -253.206250000000, 25.4000000000000, 0.000000000000000 ) );
#331 = CARTESIAN_POINT( '', ( -253.206250000000, 25.4000000000000, 0.000000000000000 ) );
#332 = VECTOR( '', #390, 1000.00000000000 );
#333 = CARTESIAN_POINT( '', ( 253.206250000000, 25.4000000000000, 0.000000000000000 ) );
#334 = VECTOR( '', #391, 1000.00000000000 );
#335 = COLOUR_RGB( '', 0.909803926944733, 0.898039221763611, 0.949019610881805 );
#336 = CARTESIAN_POINT( '', ( -253.206250000000, -19.0500000000000, 1.90500000000000 ) );
#337 = CARTESIAN_POINT( '', ( -246.856250000000, -25.4000000000000, 1.90500000000000 ) );
#338 = AXIS2_PLACEMENT_3D( '', #392, #393, #394 );
#339 = CARTESIAN_POINT( '', ( -253.206250000000, -19.0500000000000, 1.90500000000000 ) );
#340 = VECTOR( '', #395, 1000.00000000000 );
#341 = CARTESIAN_POINT( '', ( -246.856250000000, -25.4000000000000, 1.90500000000000 ) );
#342 = VECTOR( '', #396, 1000.00000000000 );
#343 = COLOUR_RGB( '', 0.909803926944733, 0.898039221763611, 0.949019610881805 );
#344 = CARTESIAN_POINT( '', ( 230.358950000000, 12.7000000000000, 1.90500000000000 ) );
#345 = AXIS2_PLACEMENT_3D( '', #397, #398, #399 );
#346 = CARTESIAN_POINT( '', ( -225.253550000000, 12.7000000000000, 1.90500000000000 ) );
#347 = AXIS2_PLACEMENT_3D( '', #400, #401, #402 );
#348 = CARTESIAN_POINT( '', ( 246.856250000000, -25.4000000000000, 1.90500000000000 ) );
#349 = CARTESIAN_POINT( '', ( -253.206250000000, -25.4000000000000, 1.90500000000000 ) );
#350 = VECTOR( '', #403, 1000.00000000000 );
#351 = CARTESIAN_POINT( '', ( 253.206250000000, -19.0500000000000, 1.90500000000000 ) );
#352 = AXIS2_PLACEMENT_3D( '', #404, #405, #406 );
#353 = CARTESIAN_POINT( '', ( 253.206250000000, 25.4000000000000, 1.90500000000000 ) );
#354 = CARTESIAN_POINT( '', ( 253.206250000000, -25.4000000000000, 1.90500000000000 ) );
#355 = VECTOR( '', #407, 1000.00000000000 );
#356 = CARTESIAN_POINT( '', ( -253.206250000000, 25.4000000000000, 1.90500000000000 ) );
#357 = CARTESIAN_POINT( '', ( 253.206250000000, 25.4000000000000, 1.90500000000000 ) );
#358 = VECTOR( '', #408, 1000.00000000000 );
#359 = CARTESIAN_POINT( '', ( -253.206250000000, 25.4000000000000, 1.90500000000000 ) );
#360 = VECTOR( '', #409, 1000.00000000000 );
#361 = COLOUR_RGB( '', 0.909803926944733, 0.898039221763611, 0.949019610881805 );
#362 = CARTESIAN_POINT( '', ( -253.206250000000, 25.4000000000000, 1.90500000000000 ) );
#363 = VECTOR( '', #410, 1000.00000000000 );
#364 = CARTESIAN_POINT( '', ( 253.206250000000, 25.4000000000000, 1.90500000000000 ) );
#365 = VECTOR( '', #411, 1000.00000000000 );
#366 = COLOUR_RGB( '', 0.909803926944733, 0.898039221763611, 0.949019610881805 );
#367 = CARTESIAN_POINT( '', ( 253.206250000000, -19.0500000000000, 1.90500000000000 ) );
#368 = VECTOR( '', #412, 1000.00000000000 );
#369 = COLOUR_RGB( '', 0.909803926944733, 0.898039221763611, 0.949019610881805 );
#370 = COLOUR_RGB( '', 0.909803926944733, 0.898039221763611, 0.949019610881805 );
#371 = COLOUR_RGB( '', 0.909803926944733, 0.898039221763611, 0.949019610881805 );
#372 = CARTESIAN_POINT( '', ( 246.856250000000, -25.4000000000000, 1.90500000000000 ) );
#373 = VECTOR( '', #413, 1000.00000000000 );
#374 = COLOUR_RGB( '', 0.909803926944733, 0.898039221763611, 0.949019610881805 );
#375 = COLOUR_RGB( '', 0.909803926944733, 0.898039221763611, 0.949019610881805 );
#376 = CARTESIAN_POINT( '', ( 227.806250000000, 12.7000000000000, 0.000000000000000 ) );
#377 = DIRECTION( '', ( 0.000000000000000, 0.000000000000000, 1.00000000000000 ) );
#378 = DIRECTION( '', ( 1.00000000000000, 0.000000000000000, 0.000000000000000 ) );
#379 = CARTESIAN_POINT( '', ( -227.806250000000, 12.7000000000000, 0.000000000000000 ) );
#380 = DIRECTION( '', ( 0.000000000000000, 0.000000000000000, 1.00000000000000 ) );
#381 = DIRECTION( '', ( 1.00000000000000, 0.000000000000000, 0.000000000000000 ) );
#382 = DIRECTION( '', ( 0.000000000000000, 1.00000000000000, 0.000000000000000 ) );
#383 = CARTESIAN_POINT( '', ( 246.856250000000, -19.0500000000000, 0.000000000000000 ) );
#384 = DIRECTION( '', ( 0.000000000000000, 0.000000000000000, 1.00000000000000 ) );
#385 = DIRECTION( '', ( 1.00000000000000, 0.000000000000000, 0.000000000000000 ) );
#386 = DIRECTION( '', ( 1.00000000000000, 6.16592650607608E-017, 0.000000000000000 ) );
#387 = CARTESIAN_POINT( '', ( -246.856250000000, -19.0500000000000, 0.000000000000000 ) );
#388 = DIRECTION( '', ( 0.000000000000000, 0.000000000000000, 1.00000000000000 ) );
#389 = DIRECTION( '', ( 1.00000000000000, 0.000000000000000, 0.000000000000000 ) );
#390 = DIRECTION( '', ( 0.000000000000000, -1.00000000000000, 0.000000000000000 ) );
#391 = DIRECTION( '', ( -1.00000000000000, 6.16592650607608E-017, 0.000000000000000 ) );
#392 = CARTESIAN_POINT( '', ( -246.856250000000, -19.0500000000000, 1.90500000000000 ) );
#393 = DIRECTION( '', ( 0.000000000000000, 0.000000000000000, 1.00000000000000 ) );
#394 = DIRECTION( '', ( 1.00000000000000, 0.000000000000000, 0.000000000000000 ) );
#395 = DIRECTION( '', ( 0.000000000000000, 0.000000000000000, -1.00000000000000 ) );
#396 = DIRECTION( '', ( 0.000000000000000, 0.000000000000000, -1.00000000000000 ) );
#397 = CARTESIAN_POINT( '', ( 227.806250000000, 12.7000000000000, 1.90500000000000 ) );
#398 = DIRECTION( '', ( 0.000000000000000, 0.000000000000000, -1.00000000000000 ) );
#399 = DIRECTION( '', ( 1.00000000000000, 0.000000000000000, 0.000000000000000 ) );
#400 = CARTESIAN_POINT( '', ( -227.806250000000, 12.7000000000000, 1.90500000000000 ) );
#401 = DIRECTION( '', ( 0.000000000000000, 0.000000000000000, -1.00000000000000 ) );
#402 = DIRECTION( '', ( 1.00000000000000, 0.000000000000000, 0.000000000000000 ) );
#403 = DIRECTION( '', ( 1.00000000000000, 6.16592650607608E-017, 0.000000000000000 ) );
#404 = CARTESIAN_POINT( '', ( 246.856250000000, -19.0500000000000, 1.90500000000000 ) );
#405 = DIRECTION( '', ( 0.000000000000000, 0.000000000000000, 1.00000000000000 ) );
#406 = DIRECTION( '', ( 1.00000000000000, 0.000000000000000, 0.000000000000000 ) );
#407 = DIRECTION( '', ( 0.000000000000000, 1.00000000000000, 0.000000000000000 ) );
#408 = DIRECTION( '', ( -1.00000000000000, 6.16592650607608E-017, 0.000000000000000 ) );
#409 = DIRECTION( '', ( 0.000000000000000, -1.00000000000000, 0.000000000000000 ) );
#410 = DIRECTION( '', ( 0.000000000000000, 0.000000000000000, -1.00000000000000 ) );
#411 = DIRECTION( '', ( 0.000000000000000, 0.000000000000000, -1.00000000000000 ) );
#412 = DIRECTION( '', ( 0.000000000000000, 0.000000000000000, -1.00000000000000 ) );
#413 = DIRECTION( '', ( 0.000000000000000, 0.000000000000000, -1.00000000000000 ) );
ENDSEC;
END-ISO-10303-21;
