ISO-10303-21;
HEADER;
FILE_DESCRIPTION( ( 'Unknown' ), '1' );
FILE_NAME( 'C:/STDBEL/ADSR/3D/ADSR16/ADSR16.stp', 'Unknown', ( 'Unknown' ), ( 'Unknown' ), 'PSStep 16.0.42', 'Unknown', '  ' );
FILE_SCHEMA( ( 'AUTOMOTIVE_DESIGN { 1 0 10303 214 1 1 1 1 }' ) );
ENDSEC;
DATA;
#1 = MECHANICAL_DESIGN_GEOMETRIC_PRESENTATION_REPRESENTATION( ' ', ( #10, #11, #12, #13, #14, #15, #16, #17, #18, #19 ), #6 );
#2 = PRODUCT_DEFINITION_CONTEXT( '', #20, 'design' );
#3 = APPLICATION_PROTOCOL_DEFINITION( 'international standard', 'automotive_design', 2001, #20 );
#4 = PRODUCT_CATEGORY_RELATIONSHIP( 'NONE', 'NONE', #21, #22 );
#5 = SHAPE_DEFINITION_REPRESENTATION( #23, #24 );
#6 =  ( GEOMETRIC_REPRESENTATION_CONTEXT( 3 )GLOBAL_UNCERTAINTY_ASSIGNED_CONTEXT( ( #27 ) )GLOBAL_UNIT_ASSIGNED_CONTEXT( ( #29, #30, #31 ) )REPRESENTATION_CONTEXT( 'NONE', 'WORKSPACE' ) );
#10 = STYLED_ITEM( '', ( #33 ), #34 );
#11 = STYLED_ITEM( '', ( #35 ), #36 );
#12 = STYLED_ITEM( '', ( #37 ), #38 );
#13 = STYLED_ITEM( '', ( #39 ), #40 );
#14 = STYLED_ITEM( '', ( #41 ), #42 );
#15 = STYLED_ITEM( '', ( #43 ), #44 );
#16 = STYLED_ITEM( '', ( #45 ), #46 );
#17 = STYLED_ITEM( '', ( #47 ), #48 );
#18 = STYLED_ITEM( '', ( #49 ), #50 );
#19 = STYLED_ITEM( '', ( #51 ), #52 );
#20 = APPLICATION_CONTEXT( 'core data for automotive mechanical design processes' );
#21 = PRODUCT_CATEGORY( 'part', 'NONE' );
#22 = PRODUCT_RELATED_PRODUCT_CATEGORY( 'detail', ' ', ( #53 ) );
#23 = PRODUCT_DEFINITION_SHAPE( 'NONE', 'NONE', #54 );
#24 = ADVANCED_BREP_SHAPE_REPRESENTATION( '1', ( #55, #56 ), #6 );
#27 = UNCERTAINTY_MEASURE_WITH_UNIT( LENGTH_MEASURE( 0.00100000000000000 ), #29, '', '' );
#29 =  ( CONVERSION_BASED_UNIT( 'MILLIMETRE', #59 )LENGTH_UNIT(  )NAMED_UNIT( #62 ) );
#30 =  ( NAMED_UNIT( #64 )PLANE_ANGLE_UNIT(  )SI_UNIT( $, .RADIAN. ) );
#31 =  ( NAMED_UNIT( #64 )SI_UNIT( $, .STERADIAN. )SOLID_ANGLE_UNIT(  ) );
#33 = PRESENTATION_STYLE_ASSIGNMENT( ( #70 ) );
#34 = ADVANCED_FACE( '', ( #71, #72 ), #73, .F. );
#35 = PRESENTATION_STYLE_ASSIGNMENT( ( #74 ) );
#36 = ADVANCED_FACE( '', ( #75 ), #76, .F. );
#37 = PRESENTATION_STYLE_ASSIGNMENT( ( #77 ) );
#38 = ADVANCED_FACE( '', ( #78 ), #79, .F. );
#39 = PRESENTATION_STYLE_ASSIGNMENT( ( #80 ) );
#40 = ADVANCED_FACE( '', ( #81, #82, #83 ), #84, .T. );
#41 = PRESENTATION_STYLE_ASSIGNMENT( ( #85 ) );
#42 = ADVANCED_FACE( '', ( #86 ), #87, .F. );
#43 = PRESENTATION_STYLE_ASSIGNMENT( ( #88 ) );
#44 = ADVANCED_FACE( '', ( #89 ), #90, .F. );
#45 = PRESENTATION_STYLE_ASSIGNMENT( ( #91 ) );
#46 = ADVANCED_FACE( '', ( #92 ), #93, .T. );
#47 = PRESENTATION_STYLE_ASSIGNMENT( ( #94 ) );
#48 = ADVANCED_FACE( '', ( #95, #96, #97 ), #98, .F. );
#49 = PRESENTATION_STYLE_ASSIGNMENT( ( #99 ) );
#50 = ADVANCED_FACE( '', ( #100, #101 ), #102, .F. );
#51 = PRESENTATION_STYLE_ASSIGNMENT( ( #103 ) );
#52 = ADVANCED_FACE( '', ( #104 ), #105, .T. );
#53 = PRODUCT( '1', '1', 'PART-1-DESC', ( #106 ) );
#54 = PRODUCT_DEFINITION( 'NONE', 'NONE', #107, #2 );
#55 = MANIFOLD_SOLID_BREP( '1', #108 );
#56 = AXIS2_PLACEMENT_3D( '', #109, #110, #111 );
#59 = LENGTH_MEASURE_WITH_UNIT( LENGTH_MEASURE( 1.00000000000000 ), #112 );
#62 = DIMENSIONAL_EXPONENTS( 1.00000000000000, 0.000000000000000, 0.000000000000000, 0.000000000000000, 0.000000000000000, 0.000000000000000, 0.000000000000000 );
#64 = DIMENSIONAL_EXPONENTS( 0.000000000000000, 0.000000000000000, 0.000000000000000, 0.000000000000000, 0.000000000000000, 0.000000000000000, 0.000000000000000 );
#70 = SURFACE_STYLE_USAGE( .BOTH., #113 );
#71 = FACE_OUTER_BOUND( '', #114, .T. );
#72 = FACE_OUTER_BOUND( '', #115, .T. );
#73 = CYLINDRICAL_SURFACE( '', #116, 2.55270000000000 );
#74 = SURFACE_STYLE_USAGE( .BOTH., #117 );
#75 = FACE_OUTER_BOUND( '', #118, .T. );
#76 = PLANE( '', #119 );
#77 = SURFACE_STYLE_USAGE( .BOTH., #120 );
#78 = FACE_OUTER_BOUND( '', #121, .T. );
#79 = PLANE( '', #122 );
#80 = SURFACE_STYLE_USAGE( .BOTH., #123 );
#81 = FACE_BOUND( '', #124, .T. );
#82 = FACE_BOUND( '', #125, .T. );
#83 = FACE_OUTER_BOUND( '', #126, .T. );
#84 = PLANE( '', #127 );
#85 = SURFACE_STYLE_USAGE( .BOTH., #128 );
#86 = FACE_OUTER_BOUND( '', #129, .T. );
#87 = PLANE( '', #130 );
#88 = SURFACE_STYLE_USAGE( .BOTH., #131 );
#89 = FACE_OUTER_BOUND( '', #132, .T. );
#90 = PLANE( '', #133 );
#91 = SURFACE_STYLE_USAGE( .BOTH., #134 );
#92 = FACE_OUTER_BOUND( '', #135, .T. );
#93 = CYLINDRICAL_SURFACE( '', #136, 6.35000000000000 );
#94 = SURFACE_STYLE_USAGE( .BOTH., #137 );
#95 = FACE_BOUND( '', #138, .T. );
#96 = FACE_BOUND( '', #139, .T. );
#97 = FACE_OUTER_BOUND( '', #140, .T. );
#98 = PLANE( '', #141 );
#99 = SURFACE_STYLE_USAGE( .BOTH., #142 );
#100 = FACE_OUTER_BOUND( '', #143, .T. );
#101 = FACE_OUTER_BOUND( '', #144, .T. );
#102 = CYLINDRICAL_SURFACE( '', #145, 2.55270000000000 );
#103 = SURFACE_STYLE_USAGE( .BOTH., #146 );
#104 = FACE_OUTER_BOUND( '', #147, .T. );
#105 = CYLINDRICAL_SURFACE( '', #148, 6.35000000000000 );
#106 = PRODUCT_CONTEXT( '', #20, 'mechanical' );
#107 = PRODUCT_DEFINITION_FORMATION_WITH_SPECIFIED_SOURCE( ' ', 'NONE', #53, .NOT_KNOWN. );
#108 = CLOSED_SHELL( '', ( #42, #38, #36, #46, #52, #48, #40, #44, #34, #50 ) );
#109 = CARTESIAN_POINT( '', ( 0.000000000000000, 0.000000000000000, 0.000000000000000 ) );
#110 = DIRECTION( '', ( 0.000000000000000, 0.000000000000000, 1.00000000000000 ) );
#111 = DIRECTION( '', ( 1.00000000000000, 0.000000000000000, 0.000000000000000 ) );
#112 =  ( LENGTH_UNIT(  )NAMED_UNIT( #62 )SI_UNIT( .MILLI., .METRE. ) );
#113 = SURFACE_SIDE_STYLE( '', ( #150 ) );
#114 = EDGE_LOOP( '', ( #151 ) );
#115 = EDGE_LOOP( '', ( #152 ) );
#116 = AXIS2_PLACEMENT_3D( '', #153, #154, #155 );
#117 = SURFACE_SIDE_STYLE( '', ( #156 ) );
#118 = EDGE_LOOP( '', ( #157, #158, #159, #160 ) );
#119 = AXIS2_PLACEMENT_3D( '', #161, #162, #163 );
#120 = SURFACE_SIDE_STYLE( '', ( #164 ) );
#121 = EDGE_LOOP( '', ( #165, #166, #167, #168 ) );
#122 = AXIS2_PLACEMENT_3D( '', #169, #170, #171 );
#123 = SURFACE_SIDE_STYLE( '', ( #172 ) );
#124 = EDGE_LOOP( '', ( #173 ) );
#125 = EDGE_LOOP( '', ( #174 ) );
#126 = EDGE_LOOP( '', ( #175, #176, #177, #178, #179, #180 ) );
#127 = AXIS2_PLACEMENT_3D( '', #181, #182, #183 );
#128 = SURFACE_SIDE_STYLE( '', ( #184 ) );
#129 = EDGE_LOOP( '', ( #185, #186, #187, #188 ) );
#130 = AXIS2_PLACEMENT_3D( '', #189, #190, #191 );
#131 = SURFACE_SIDE_STYLE( '', ( #192 ) );
#132 = EDGE_LOOP( '', ( #193, #194, #195, #196 ) );
#133 = AXIS2_PLACEMENT_3D( '', #197, #198, #199 );
#134 = SURFACE_SIDE_STYLE( '', ( #200 ) );
#135 = EDGE_LOOP( '', ( #201, #202, #203, #204 ) );
#136 = AXIS2_PLACEMENT_3D( '', #205, #206, #207 );
#137 = SURFACE_SIDE_STYLE( '', ( #208 ) );
#138 = EDGE_LOOP( '', ( #209 ) );
#139 = EDGE_LOOP( '', ( #210 ) );
#140 = EDGE_LOOP( '', ( #211, #212, #213, #214, #215, #216 ) );
#141 = AXIS2_PLACEMENT_3D( '', #217, #218, #219 );
#142 = SURFACE_SIDE_STYLE( '', ( #220 ) );
#143 = EDGE_LOOP( '', ( #221 ) );
#144 = EDGE_LOOP( '', ( #222 ) );
#145 = AXIS2_PLACEMENT_3D( '', #223, #224, #225 );
#146 = SURFACE_SIDE_STYLE( '', ( #226 ) );
#147 = EDGE_LOOP( '', ( #227, #228, #229, #230 ) );
#148 = AXIS2_PLACEMENT_3D( '', #231, #232, #233 );
#150 = SURFACE_STYLE_FILL_AREA( #234 );
#151 = ORIENTED_EDGE( '', *, *, #235, .F. );
#152 = ORIENTED_EDGE( '', *, *, #236, .T. );
#153 = CARTESIAN_POINT( '', ( -177.006250000000, 12.7000000000000, -406.086947446576 ) );
#154 = DIRECTION( '', ( -0.000000000000000, -0.000000000000000, -1.00000000000000 ) );
#155 = DIRECTION( '', ( 1.00000000000000, 0.000000000000000, 0.000000000000000 ) );
#156 = SURFACE_STYLE_FILL_AREA( #237 );
#157 = ORIENTED_EDGE( '', *, *, #238, .T. );
#158 = ORIENTED_EDGE( '', *, *, #239, .T. );
#159 = ORIENTED_EDGE( '', *, *, #240, .F. );
#160 = ORIENTED_EDGE( '', *, *, #241, .T. );
#161 = CARTESIAN_POINT( '', ( -202.406250000000, 25.4000000000000, 1.90500000000000 ) );
#162 = DIRECTION( '', ( 1.00000000000000, 0.000000000000000, 0.000000000000000 ) );
#163 = DIRECTION( '', ( 0.000000000000000, 0.000000000000000, -1.00000000000000 ) );
#164 = SURFACE_STYLE_FILL_AREA( #242 );
#165 = ORIENTED_EDGE( '', *, *, #243, .F. );
#166 = ORIENTED_EDGE( '', *, *, #244, .T. );
#167 = ORIENTED_EDGE( '', *, *, #245, .T. );
#168 = ORIENTED_EDGE( '', *, *, #246, .F. );
#169 = CARTESIAN_POINT( '', ( 202.406250000000, -25.4000000000000, 1.90500000000000 ) );
#170 = DIRECTION( '', ( -1.00000000000000, 0.000000000000000, 0.000000000000000 ) );
#171 = DIRECTION( '', ( 0.000000000000000, 0.000000000000000, 1.00000000000000 ) );
#172 = SURFACE_STYLE_FILL_AREA( #247 );
#173 = ORIENTED_EDGE( '', *, *, #248, .T. );
#174 = ORIENTED_EDGE( '', *, *, #235, .T. );
#175 = ORIENTED_EDGE( '', *, *, #249, .T. );
#176 = ORIENTED_EDGE( '', *, *, #250, .T. );
#177 = ORIENTED_EDGE( '', *, *, #243, .T. );
#178 = ORIENTED_EDGE( '', *, *, #251, .T. );
#179 = ORIENTED_EDGE( '', *, *, #240, .T. );
#180 = ORIENTED_EDGE( '', *, *, #252, .T. );
#181 = CARTESIAN_POINT( '', ( 0.000000000000000, 0.000000000000000, 1.90500000000000 ) );
#182 = DIRECTION( '', ( 0.000000000000000, 0.000000000000000, 1.00000000000000 ) );
#183 = DIRECTION( '', ( 1.00000000000000, 0.000000000000000, 0.000000000000000 ) );
#184 = SURFACE_STYLE_FILL_AREA( #253 );
#185 = ORIENTED_EDGE( '', *, *, #254, .T. );
#186 = ORIENTED_EDGE( '', *, *, #255, .T. );
#187 = ORIENTED_EDGE( '', *, *, #249, .F. );
#188 = ORIENTED_EDGE( '', *, *, #256, .T. );
#189 = CARTESIAN_POINT( '', ( -202.406250000000, -25.4000000000000, 1.90500000000000 ) );
#190 = DIRECTION( '', ( -5.99935245667446E-017, 1.00000000000000, 0.000000000000000 ) );
#191 = DIRECTION( '', ( -1.00000000000000, -5.99935245667446E-017, 0.000000000000000 ) );
#192 = SURFACE_STYLE_FILL_AREA( #257 );
#193 = ORIENTED_EDGE( '', *, *, #258, .T. );
#194 = ORIENTED_EDGE( '', *, *, #241, .F. );
#195 = ORIENTED_EDGE( '', *, *, #251, .F. );
#196 = ORIENTED_EDGE( '', *, *, #246, .T. );
#197 = CARTESIAN_POINT( '', ( 202.406250000000, 25.4000000000000, 1.90500000000000 ) );
#198 = DIRECTION( '', ( -5.99935245667446E-017, -1.00000000000000, 0.000000000000000 ) );
#199 = DIRECTION( '', ( 1.00000000000000, -5.99935245667446E-017, 0.000000000000000 ) );
#200 = SURFACE_STYLE_FILL_AREA( #259 );
#201 = ORIENTED_EDGE( '', *, *, #250, .F. );
#202 = ORIENTED_EDGE( '', *, *, #255, .F. );
#203 = ORIENTED_EDGE( '', *, *, #260, .F. );
#204 = ORIENTED_EDGE( '', *, *, #244, .F. );
#205 = CARTESIAN_POINT( '', ( 196.056250000000, -19.0500000000000, 1.90500000000000 ) );
#206 = DIRECTION( '', ( -0.000000000000000, -0.000000000000000, 1.00000000000000 ) );
#207 = DIRECTION( '', ( -1.00000000000000, 0.000000000000000, 0.000000000000000 ) );
#208 = SURFACE_STYLE_FILL_AREA( #261 );
#209 = ORIENTED_EDGE( '', *, *, #262, .F. );
#210 = ORIENTED_EDGE( '', *, *, #236, .F. );
#211 = ORIENTED_EDGE( '', *, *, #245, .F. );
#212 = ORIENTED_EDGE( '', *, *, #260, .T. );
#213 = ORIENTED_EDGE( '', *, *, #254, .F. );
#214 = ORIENTED_EDGE( '', *, *, #263, .T. );
#215 = ORIENTED_EDGE( '', *, *, #238, .F. );
#216 = ORIENTED_EDGE( '', *, *, #258, .F. );
#217 = CARTESIAN_POINT( '', ( 0.000000000000000, 0.000000000000000, 0.000000000000000 ) );
#218 = DIRECTION( '', ( 0.000000000000000, 0.000000000000000, 1.00000000000000 ) );
#219 = DIRECTION( '', ( 1.00000000000000, 0.000000000000000, 0.000000000000000 ) );
#220 = SURFACE_STYLE_FILL_AREA( #264 );
#221 = ORIENTED_EDGE( '', *, *, #248, .F. );
#222 = ORIENTED_EDGE( '', *, *, #262, .T. );
#223 = CARTESIAN_POINT( '', ( 177.006250000000, 12.7000000000000, -406.086947446576 ) );
#224 = DIRECTION( '', ( -0.000000000000000, -0.000000000000000, -1.00000000000000 ) );
#225 = DIRECTION( '', ( 1.00000000000000, 0.000000000000000, 0.000000000000000 ) );
#226 = SURFACE_STYLE_FILL_AREA( #265 );
#227 = ORIENTED_EDGE( '', *, *, #252, .F. );
#228 = ORIENTED_EDGE( '', *, *, #239, .F. );
#229 = ORIENTED_EDGE( '', *, *, #263, .F. );
#230 = ORIENTED_EDGE( '', *, *, #256, .F. );
#231 = CARTESIAN_POINT( '', ( -196.056250000000, -19.0500000000000, 1.90500000000000 ) );
#232 = DIRECTION( '', ( -0.000000000000000, -0.000000000000000, 1.00000000000000 ) );
#233 = DIRECTION( '', ( -1.00000000000000, 0.000000000000000, 0.000000000000000 ) );
#234 = FILL_AREA_STYLE( '', ( #266 ) );
#235 = EDGE_CURVE( '', #267, #267, #268, .T. );
#236 = EDGE_CURVE( '', #269, #269, #270, .F. );
#237 = FILL_AREA_STYLE( '', ( #271 ) );
#238 = EDGE_CURVE( '', #272, #273, #274, .T. );
#239 = EDGE_CURVE( '', #273, #275, #276, .F. );
#240 = EDGE_CURVE( '', #277, #275, #278, .T. );
#241 = EDGE_CURVE( '', #277, #272, #279, .T. );
#242 = FILL_AREA_STYLE( '', ( #280 ) );
#243 = EDGE_CURVE( '', #281, #282, #283, .T. );
#244 = EDGE_CURVE( '', #281, #284, #285, .T. );
#245 = EDGE_CURVE( '', #284, #286, #287, .T. );
#246 = EDGE_CURVE( '', #282, #286, #288, .T. );
#247 = FILL_AREA_STYLE( '', ( #289 ) );
#248 = EDGE_CURVE( '', #290, #290, #291, .T. );
#249 = EDGE_CURVE( '', #292, #293, #294, .T. );
#250 = EDGE_CURVE( '', #293, #281, #295, .T. );
#251 = EDGE_CURVE( '', #282, #277, #296, .T. );
#252 = EDGE_CURVE( '', #275, #292, #297, .T. );
#253 = FILL_AREA_STYLE( '', ( #298 ) );
#254 = EDGE_CURVE( '', #299, #300, #301, .T. );
#255 = EDGE_CURVE( '', #300, #293, #302, .F. );
#256 = EDGE_CURVE( '', #292, #299, #303, .T. );
#257 = FILL_AREA_STYLE( '', ( #304 ) );
#258 = EDGE_CURVE( '', #286, #272, #305, .T. );
#259 = FILL_AREA_STYLE( '', ( #306 ) );
#260 = EDGE_CURVE( '', #284, #300, #307, .F. );
#261 = FILL_AREA_STYLE( '', ( #308 ) );
#262 = EDGE_CURVE( '', #309, #309, #310, .F. );
#263 = EDGE_CURVE( '', #299, #273, #311, .F. );
#264 = FILL_AREA_STYLE( '', ( #312 ) );
#265 = FILL_AREA_STYLE( '', ( #313 ) );
#266 = FILL_AREA_STYLE_COLOUR( '', #314 );
#267 = VERTEX_POINT( '', #315 );
#268 = CIRCLE( '', #316, 2.55270000000000 );
#269 = VERTEX_POINT( '', #317 );
#270 = CIRCLE( '', #318, 2.55270000000000 );
#271 = FILL_AREA_STYLE_COLOUR( '', #319 );
#272 = VERTEX_POINT( '', #320 );
#273 = VERTEX_POINT( '', #321 );
#274 = LINE( '', #322, #323 );
#275 = VERTEX_POINT( '', #324 );
#276 = LINE( '', #325, #326 );
#277 = VERTEX_POINT( '', #327 );
#278 = LINE( '', #328, #329 );
#279 = LINE( '', #330, #331 );
#280 = FILL_AREA_STYLE_COLOUR( '', #332 );
#281 = VERTEX_POINT( '', #333 );
#282 = VERTEX_POINT( '', #334 );
#283 = LINE( '', #335, #336 );
#284 = VERTEX_POINT( '', #337 );
#285 = LINE( '', #338, #339 );
#286 = VERTEX_POINT( '', #340 );
#287 = LINE( '', #341, #342 );
#288 = LINE( '', #343, #344 );
#289 = FILL_AREA_STYLE_COLOUR( '', #345 );
#290 = VERTEX_POINT( '', #346 );
#291 = CIRCLE( '', #347, 2.55270000000000 );
#292 = VERTEX_POINT( '', #348 );
#293 = VERTEX_POINT( '', #349 );
#294 = LINE( '', #350, #351 );
#295 = CIRCLE( '', #352, 6.35000000000000 );
#296 = LINE( '', #353, #354 );
#297 = CIRCLE( '', #355, 6.35000000000000 );
#298 = FILL_AREA_STYLE_COLOUR( '', #356 );
#299 = VERTEX_POINT( '', #357 );
#300 = VERTEX_POINT( '', #358 );
#301 = LINE( '', #359, #360 );
#302 = LINE( '', #361, #362 );
#303 = LINE( '', #363, #364 );
#304 = FILL_AREA_STYLE_COLOUR( '', #365 );
#305 = LINE( '', #366, #367 );
#306 = FILL_AREA_STYLE_COLOUR( '', #368 );
#307 = CIRCLE( '', #369, 6.35000000000000 );
#308 = FILL_AREA_STYLE_COLOUR( '', #370 );
#309 = VERTEX_POINT( '', #371 );
#310 = CIRCLE( '', #372, 2.55270000000000 );
#311 = CIRCLE( '', #373, 6.35000000000000 );
#312 = FILL_AREA_STYLE_COLOUR( '', #374 );
#313 = FILL_AREA_STYLE_COLOUR( '', #375 );
#314 = COLOUR_RGB( '', 0.909803926944733, 0.898039221763611, 0.949019610881805 );
#315 = CARTESIAN_POINT( '', ( -174.453550000000, 12.7000000000000, 1.90500000000000 ) );
#316 = AXIS2_PLACEMENT_3D( '', #376, #377, #378 );
#317 = CARTESIAN_POINT( '', ( -174.453550000000, 12.7000000000000, 0.000000000000000 ) );
#318 = AXIS2_PLACEMENT_3D( '', #379, #380, #381 );
#319 = COLOUR_RGB( '', 0.909803926944733, 0.898039221763611, 0.949019610881805 );
#320 = CARTESIAN_POINT( '', ( -202.406250000000, 25.4000000000000, 0.000000000000000 ) );
#321 = CARTESIAN_POINT( '', ( -202.406250000000, -19.0500000000000, 0.000000000000000 ) );
#322 = CARTESIAN_POINT( '', ( -202.406250000000, 25.4000000000000, 0.000000000000000 ) );
#323 = VECTOR( '', #382, 1000.00000000000 );
#324 = CARTESIAN_POINT( '', ( -202.406250000000, -19.0500000000000, 1.90500000000000 ) );
#325 = CARTESIAN_POINT( '', ( -202.406250000000, -19.0500000000000, 1.90500000000000 ) );
#326 = VECTOR( '', #383, 1000.00000000000 );
#327 = CARTESIAN_POINT( '', ( -202.406250000000, 25.4000000000000, 1.90500000000000 ) );
#328 = CARTESIAN_POINT( '', ( -202.406250000000, 25.4000000000000, 1.90500000000000 ) );
#329 = VECTOR( '', #384, 1000.00000000000 );
#330 = CARTESIAN_POINT( '', ( -202.406250000000, 25.4000000000000, 1.90500000000000 ) );
#331 = VECTOR( '', #385, 1000.00000000000 );
#332 = COLOUR_RGB( '', 0.909803926944733, 0.898039221763611, 0.949019610881805 );
#333 = CARTESIAN_POINT( '', ( 202.406250000000, -19.0500000000000, 1.90500000000000 ) );
#334 = CARTESIAN_POINT( '', ( 202.406250000000, 25.4000000000000, 1.90500000000000 ) );
#335 = CARTESIAN_POINT( '', ( 202.406250000000, -25.4000000000000, 1.90500000000000 ) );
#336 = VECTOR( '', #386, 1000.00000000000 );
#337 = CARTESIAN_POINT( '', ( 202.406250000000, -19.0500000000000, 0.000000000000000 ) );
#338 = CARTESIAN_POINT( '', ( 202.406250000000, -19.0500000000000, 1.90500000000000 ) );
#339 = VECTOR( '', #387, 1000.00000000000 );
#340 = CARTESIAN_POINT( '', ( 202.406250000000, 25.4000000000000, 0.000000000000000 ) );
#341 = CARTESIAN_POINT( '', ( 202.406250000000, -25.4000000000000, 0.000000000000000 ) );
#342 = VECTOR( '', #388, 1000.00000000000 );
#343 = CARTESIAN_POINT( '', ( 202.406250000000, 25.4000000000000, 1.90500000000000 ) );
#344 = VECTOR( '', #389, 1000.00000000000 );
#345 = COLOUR_RGB( '', 0.909803926944733, 0.898039221763611, 0.949019610881805 );
#346 = CARTESIAN_POINT( '', ( 179.558950000000, 12.7000000000000, 1.90500000000000 ) );
#347 = AXIS2_PLACEMENT_3D( '', #390, #391, #392 );
#348 = CARTESIAN_POINT( '', ( -196.056250000000, -25.4000000000000, 1.90500000000000 ) );
#349 = CARTESIAN_POINT( '', ( 196.056250000000, -25.4000000000000, 1.90500000000000 ) );
#350 = CARTESIAN_POINT( '', ( -202.406250000000, -25.4000000000000, 1.90500000000000 ) );
#351 = VECTOR( '', #393, 1000.00000000000 );
#352 = AXIS2_PLACEMENT_3D( '', #394, #395, #396 );
#353 = CARTESIAN_POINT( '', ( 202.406250000000, 25.4000000000000, 1.90500000000000 ) );
#354 = VECTOR( '', #397, 1000.00000000000 );
#355 = AXIS2_PLACEMENT_3D( '', #398, #399, #400 );
#356 = COLOUR_RGB( '', 0.909803926944733, 0.898039221763611, 0.949019610881805 );
#357 = CARTESIAN_POINT( '', ( -196.056250000000, -25.4000000000000, 0.000000000000000 ) );
#358 = CARTESIAN_POINT( '', ( 196.056250000000, -25.4000000000000, 0.000000000000000 ) );
#359 = CARTESIAN_POINT( '', ( -202.406250000000, -25.4000000000000, 0.000000000000000 ) );
#360 = VECTOR( '', #401, 1000.00000000000 );
#361 = CARTESIAN_POINT( '', ( 196.056250000000, -25.4000000000000, 1.90500000000000 ) );
#362 = VECTOR( '', #402, 1000.00000000000 );
#363 = CARTESIAN_POINT( '', ( -196.056250000000, -25.4000000000000, 1.90500000000000 ) );
#364 = VECTOR( '', #403, 1000.00000000000 );
#365 = COLOUR_RGB( '', 0.909803926944733, 0.898039221763611, 0.949019610881805 );
#366 = CARTESIAN_POINT( '', ( 202.406250000000, 25.4000000000000, 0.000000000000000 ) );
#367 = VECTOR( '', #404, 1000.00000000000 );
#368 = COLOUR_RGB( '', 0.909803926944733, 0.898039221763611, 0.949019610881805 );
#369 = AXIS2_PLACEMENT_3D( '', #405, #406, #407 );
#370 = COLOUR_RGB( '', 0.909803926944733, 0.898039221763611, 0.949019610881805 );
#371 = CARTESIAN_POINT( '', ( 179.558950000000, 12.7000000000000, 0.000000000000000 ) );
#372 = AXIS2_PLACEMENT_3D( '', #408, #409, #410 );
#373 = AXIS2_PLACEMENT_3D( '', #411, #412, #413 );
#374 = COLOUR_RGB( '', 0.909803926944733, 0.898039221763611, 0.949019610881805 );
#375 = COLOUR_RGB( '', 0.909803926944733, 0.898039221763611, 0.949019610881805 );
#376 = CARTESIAN_POINT( '', ( -177.006250000000, 12.7000000000000, 1.90500000000000 ) );
#377 = DIRECTION( '', ( 0.000000000000000, 0.000000000000000, -1.00000000000000 ) );
#378 = DIRECTION( '', ( 1.00000000000000, 0.000000000000000, 0.000000000000000 ) );
#379 = CARTESIAN_POINT( '', ( -177.006250000000, 12.7000000000000, 0.000000000000000 ) );
#380 = DIRECTION( '', ( 0.000000000000000, 0.000000000000000, 1.00000000000000 ) );
#381 = DIRECTION( '', ( 1.00000000000000, 0.000000000000000, 0.000000000000000 ) );
#382 = DIRECTION( '', ( 0.000000000000000, -1.00000000000000, 0.000000000000000 ) );
#383 = DIRECTION( '', ( 0.000000000000000, 0.000000000000000, -1.00000000000000 ) );
#384 = DIRECTION( '', ( 0.000000000000000, -1.00000000000000, 0.000000000000000 ) );
#385 = DIRECTION( '', ( 0.000000000000000, 0.000000000000000, -1.00000000000000 ) );
#386 = DIRECTION( '', ( 0.000000000000000, 1.00000000000000, 0.000000000000000 ) );
#387 = DIRECTION( '', ( 0.000000000000000, 0.000000000000000, -1.00000000000000 ) );
#388 = DIRECTION( '', ( 0.000000000000000, 1.00000000000000, 0.000000000000000 ) );
#389 = DIRECTION( '', ( 0.000000000000000, 0.000000000000000, -1.00000000000000 ) );
#390 = CARTESIAN_POINT( '', ( 177.006250000000, 12.7000000000000, 1.90500000000000 ) );
#391 = DIRECTION( '', ( 0.000000000000000, 0.000000000000000, -1.00000000000000 ) );
#392 = DIRECTION( '', ( 1.00000000000000, 0.000000000000000, 0.000000000000000 ) );
#393 = DIRECTION( '', ( 1.00000000000000, 5.99935245667446E-017, 0.000000000000000 ) );
#394 = CARTESIAN_POINT( '', ( 196.056250000000, -19.0500000000000, 1.90500000000000 ) );
#395 = DIRECTION( '', ( 0.000000000000000, 0.000000000000000, 1.00000000000000 ) );
#396 = DIRECTION( '', ( 1.00000000000000, 0.000000000000000, 0.000000000000000 ) );
#397 = DIRECTION( '', ( -1.00000000000000, 5.99935245667446E-017, 0.000000000000000 ) );
#398 = CARTESIAN_POINT( '', ( -196.056250000000, -19.0500000000000, 1.90500000000000 ) );
#399 = DIRECTION( '', ( 0.000000000000000, 0.000000000000000, 1.00000000000000 ) );
#400 = DIRECTION( '', ( 1.00000000000000, 0.000000000000000, 0.000000000000000 ) );
#401 = DIRECTION( '', ( 1.00000000000000, 5.99935245667446E-017, 0.000000000000000 ) );
#402 = DIRECTION( '', ( 0.000000000000000, 0.000000000000000, -1.00000000000000 ) );
#403 = DIRECTION( '', ( 0.000000000000000, 0.000000000000000, -1.00000000000000 ) );
#404 = DIRECTION( '', ( -1.00000000000000, 5.99935245667446E-017, 0.000000000000000 ) );
#405 = CARTESIAN_POINT( '', ( 196.056250000000, -19.0500000000000, 0.000000000000000 ) );
#406 = DIRECTION( '', ( 0.000000000000000, 0.000000000000000, 1.00000000000000 ) );
#407 = DIRECTION( '', ( 1.00000000000000, 0.000000000000000, 0.000000000000000 ) );
#408 = CARTESIAN_POINT( '', ( 177.006250000000, 12.7000000000000, 0.000000000000000 ) );
#409 = DIRECTION( '', ( 0.000000000000000, 0.000000000000000, 1.00000000000000 ) );
#410 = DIRECTION( '', ( 1.00000000000000, 0.000000000000000, 0.000000000000000 ) );
#411 = CARTESIAN_POINT( '', ( -196.056250000000, -19.0500000000000, 0.000000000000000 ) );
#412 = DIRECTION( '', ( 0.000000000000000, 0.000000000000000, 1.00000000000000 ) );
#413 = DIRECTION( '', ( 1.00000000000000, 0.000000000000000, 0.000000000000000 ) );
ENDSEC;
END-ISO-10303-21;
